Davie504

Desbassito

Davie504

bass

by  JOAOEWERTON

save to print version add songbook text version e-mail correct tuner
chordsukulelecavacokeyboardtabbassdrumsharmonicaflute Guitar Pro
close

there isn't a video lesson for this song

chords

Desbassito

	  		
Intro 

G|----16-18-19-18-16----------|--16--18--19--21---11----11----11--------|-/19-----/18------| 
D|-16-------------------------|--16------------------12----12-----------|-/16-----/16------| 
A|----------------------------|-----------------------------------------|------------------| 
E|----------------------------|-----------------------------------------|------------------| 



Theme 1 
    
G|------4--4-------4---------4--6--7p6p4-----|------4--4-------4--4-------4--6--7p6p4----| 
D|------4--4----------4---4------------------|------5--5-------5--5----5-----------------| 
A|-2------------2----------------------------|-------------------------------------------| 
E|-------------------------------------------|-3------------3----------------------------| 

G|------7--7-------7--7--------7p6-7h9---|-6----------------------------------| 
D|------7--7-------7--7----/7------------|------------------------------------| 
A|-5------------5------------------------|-0---------0S-0S----0--12NH---------| 
E|---------------------------------------|------------------------------------| 



Theme 1 Lead 

G|-----------------------9----------------|--------------------------------------| 
D|------------9--11--12-----12--11--9--7--|-5/--------12-------------------------| 
A|---------9------------------------------|-----------10-------------------------| 
E|-7----7---------------------------------|-3/----------------x-----x------------| thump acoustic 

G|-----------7---------7---------7--/9---|--6----6--------6--x--x--6h7----x--9-----| 
D|------7---------7---------7------------|-----------------------------------------| 
A|-5-------------------------------------|--0----0-----0---------------------------| 
E|---------------------------------------|----------x------------------------------| 

G|-----------------------9----------------|--------------------------------------| 
D|------------9--11--12-----12--11--9--7--|-5/--------14\12----------------------| 
A|---------9------------------------------|-----------10-------------------------| 
E|-7----7---------------------------------|-3/----------------x-----x------------| thump acoustic 

G|-7---------7---------7---------7--/9---|--6----6--------6----/19----/18----| 
D|------7---------7---------7------------|---------------------/16----/16----| 
A|-5-------------------------------------|--0----0-----0---------------------| 
E|---------------------------------------|----------x------------------------| 



Theme 1 Continues 

   (0:43) 
G|-------16--16--------6-7p6-7p6-7-7p6-----|-0----16--16--------6-7p6-7p6-7-7-/9~---| 
D|-16----16--16----9-9---------------------|-0----17--17----9-9---------------------| 
A|-------14--14----------------------------|----------------------------------------| 
E|-----------------------------------------|----------------------------------------| 

G|------14--14--------6-7p6-7p6-7-7-9-6--|--9--6-----------9------------------| 
D|-0----12--12----9-9--------------------|---------(/11)-----------7h9--9--7--| 
A|---------------------------------------|--0------------------0--------------| 
E|---------------------------------------|------------------------------------| 

G|-------16--16--------6-7p6-7p6-7-7p6-----|-0----16--16--------6-7p6-7p6-7-7-/9~---| 
D|-16----16--16----9-9---------------------|-0----17--17----9-9---------------------| 
A|-------14--14----------------------------|----------------------------------------| 
E|-----------------------------------------|----------------------------------------| 

G|------14--14--------6-7p6-7p6-7-7-9-6--|--9--6----------/9----7-----6-----| 
D|-0----12--12----9-9--------------------|---------(/11)--------------------| 
A|---------------------------------------|--0-------------------------------| 
E|---------------------------------------|----------------------------------| 



Theme 2 

G|-------16----x----16---------------------|------------------12--------------------| 
D|-------16----x----16----h9----h9----7h9--|-------------x----12----------9-9-11h12-| 
A|-14----14----x----14---------------------|--x----10----x----10----10-10-----------| 
E|-----------------------------------------|----------------------------------------| 

G|--------------------------7p6-7--/9-9--|----6-----7NH-------7-------6--------| 
D|-----------------------7---------------|----------7NH------------------------| 
A|------12\-------5----------------------|----0--x-----------------------------| 
E|---------------------------------------|-------------------------------------| 

G|-------16----x----16---------------------|------------------12--------------------| 
D|-------16----x----16----h9----h9----7h9--|-------------x----12----------9-9-11h12-| 
A|-14----14----x----14---------------------|--x----10----x----10----10-10-----------| 
E|-----------------------------------------|----------------------------------------| 

G|--------------------------7p6-7--/9-9--|----6---------6-----12NH-------------| 
D|-----------------------7---------------|--------------------12NH-------------| 
A|------12\-------5----------------------|----0----x----0---------------0------| 
E|---------------------------------------|-------------------------------------| 



Theme 2 Lead 

G|----11p9-11p9-11------11p9-11p9-11--/12-|-12--------------12-12-12-12-12---14---| 
D|----------------------------------------|----12~--------------------------------| 
A|----------------------------------------|-10------------------------------------| 
E|-7------------------7-------------------|---------------------------------------| 

G|-12p11----------11-11-11-11-14---12---|-11--9-------9---9---9---9p7-------| 
D|-0------------------------------------|------------------------------9----| 
A|--------------------------------------|-0---0-----------------------------| 
E|--------------------------------------|-----------------------------------| 

G|----11p9-11p9-11------11p9-11p9-11--/12-|-12--------------12-12-12-12-12---14---| 
D|----------------------------------------|----12~--------------------------------| 
A|----------------------------------------|-10------------------------------------| 
E|-7------------------7-------------------|---------------------------------------| 

G|-12p11----------11-11-11-11-14---12---|-11--9----------/19----/18---------| 
D|-0------------------------------------|----------------/16----/16---------| 
A|--------------------------------------|-0---0-----------------------------| 
E|--------------------------------------|-----------------------------------| 



Walking Bassline Part 

   Use slight muting throughout 
G|---------------------------------|---------------------------------| 
D|-------------4---------------4---|---------------------------------| 
A|-2---2---5-------0---2---5-------|---------2---5-----------2---5---| 
E|---------------------------------|-3---3-----------3---3-----------| 

G|---------------------------------|---------------------------9/11--14---| 
D|---------------------------------|-----------------7---9/11-------------| 
A|-5------------------5-5----------|---------4--/7------------------------| 
E|---------2---5-----------2---5---|-5------------------------------------| 

G|---------------------------------|---------------------------------| 
D|-------------4---------------4---|-------------------5---5p4-2-----| 
A|-2---2---5-------0---2---5-------|---------5-----------------------| 
E|---------------------------------|-3-----------3-------------------| 

G|---------------------------------|---------------------------9/11--14---| 
D|--------4---7------------4---7---|-----------------7---9/11-------------| 
A|-5---------------5---5-----------|---------4--/7------------------------| 
E|---------------------------------|-5------------------------------------| 

G|--16\-----------------------------| 
D|--16\-----------------------------| 
A|------------------2---------------| 
E|----------------------------------| 



************************************ 

| x   Dead note 
| (n) Ghost note 
| h   Hammer-on 
| p   Pull-off 
| /   Slide up 
| \   Slide down 
| ~   Vibrato 
| S   Slap 
| P   Pop 
| NH  natural harmonic 
  
************************************ 
		  

See also:

bass Deep Purple - Fire Ball bass Deep Purple - Knocking At Your Back Door bass Deep Purple - Burn Ver.(2) bass Deep Purple - Smoke On The Water (ver. 2) bass Deep Purple - Smoke On The Water (ver. 3) bass Deep Purple - Into The Fire
e-chords

Other versions:

bass Davie504 - Desbassito
auto scroll beats size up size down change color hide chords drawings
tab show chords e-chords YouTube Clip e-chords hide all tabs e-chords go to top tab

share