Davie504

Boulevard Of Broken

Davie504

bass

by  FERNSANTANA

save to print version add songbook text version e-mail correct tuner
chordsukulelecavacokeyboardtabbassdrumsharmonicaflute Guitar Pro
close

there isn't a video lesson for this song

chords

Boulevard Of Broken

	  		Intro 

G|---------------|---------------|--------------|---------------| 
D|---------------|---------------|--------------|---------------| 
A|---------------|---------------|-5-5--5-5-5-5-|---------------| 
E|-0-0--0-0-0--0-|-3-3--3-3-3--3-|--------------|-5-5--5-5-5-3~-| 2x 


Verse 

G|---9-9-11-|----------|-14-12-14-12-|-14-14/16-14-12-|-9--9-11-|----------|-14-12-14-12-|-14-14/16-14-12-| 
D|----------|----12-9--|-0-----------|----------------|---------|----12-9--|-0-----------|----------------| 
A|----------|-10-------|-------------|-0--------------|---------|-10-------|-------------|-0--------------| 
E|-0--------|----------|-------------|----------------|-0-------|----------|-------------|----------------| 


Chorus 

G|-9---11-12-|-------16-14-|-----11-12-|-----14-12-| 
D|-----------|-------------|-0-0-------|-----------| 
A|-----------|-10-10-------|-----------|-0-0-------| 
E|-0-0-------|-------------|-----------|-----------| 


Verse 

G|-9-9-9-11-|----------|-14-12-14-12-|-14-14/16-14-12-|---9-9-11-|-12-19-16-|-14-12-14-12-|-14-14/16-14-12-| 
D|----------|----12-9--|-0-----------|----------------|----------|----------|-0-----------|----------------| 
A|----------|-10-------|-------------|-0--------------|----------|-10-------|-------------|-0--------------| 
E|-0--------|----------|-------------|----------------|-0--------|----------|-------------|----------------| 


Chorus 

G|-9---11-12-|-------16-14-|---16-14-12-|-14-14-16-14-| 
D|-----------|-------------|-0----------|-------------| 
A|-----------|-10-10-------|------------|-0--------0--| 
E|-0-0-------|-------------|------------|-------------| 


Bridge 

G|-------9-7----h12--|--------------------| 
D|-------------------|-7------------------| 
A|-----------10------|-5--5-7-5/7-7-7/8-7-| 
E|-7-8-8-------------|--------------------| 

G|-------9-7----h12--|--------------------| 
D|-------------------|-7------------------| 
A|-5---------10------|-5--5-7-5/7-7-7/8-7-| 
E|---8-8-------------|--------------------| 

G|-------9-7----h12--|--------------------| 
D|-------------------|--------------------| 
A|-----------10------|-5--5-7-5/7-7-7/8-7-| 
E|-7-8-8-------------|--------------------| 

G|-------9-7----h12--|-5/8--8-8-8-8-8-----| 
D|-------------------|------9-9-9-9-9-----| 
A|-----------10------|--------------------| 
E|-7-8-8-------------|------7-7-7-7-7-15/-| 


Chorus 

G|-9---11-12-|-------16-14-|-----11-12-|-----14--| 
D|-----------|-------------|-0-0-------|---------| 
A|-----------|-10-10-------|-----------|-0-0-----| 
E|-0-0-------|-------------|-----------|---------| 

G|-9---11-12-|-------16-14-|-----11-12-|-----14-12-| 
D|-----------|-------------|-0-0-------|-----------| 
A|-----------|-10-10-------|-----------|-0-0-------| 
E|-0-0-------|-------------|-----------|-----------| 


Verse 

G|---9-9-11-|----------|-14-12-14-12-|-14-14/16-14-12-|-9--9-11-|----------|-14-12-14-12-|-14-14/16-14-12-| 
D|----------|----12-9--|-0-----------|----------------|---------|----12-9--|-0-----------|----------------| 
A|----------|-10-------|-------------|-0--------------|---------|-10-------|-------------|-0--------------| 
E|-0--------|----------|-------------|----------------|-0-------|----------|-------------|----------------| 


Chorus 

G|-9---11-12-|-------16-14-|---16-14-12-|-14-14-16-14-| 
D|-----------|-------------|-0----------|-------------| 
A|-----------|-10-10-------|------------|-0--------0--| 
E|-0-0-------|-------------|------------|-------------| 

G|-9---11-12-|-------16-14-|---16-14-12-|-14-14-16-14-| 
D|-----------|-------------|-0----------|-------------| 
A|-----------|-10-10-------|------------|-0--------0--| 
E|-0-0-------|-------------|------------|-------------| 



Outro 

G|-------9-7----h12--|--------------------| 
D|-------------------|-7------------------| 
A|-----------10------|-5--5-7-5/7-7-7/8-7-| 
E|-7-8-8-------------|--------------------| 

G|-------9-7----h12--|--------------------| 
D|-------------------|-7------------------| 
A|-5---------10------|-5--5-7-5/7-7-7/8-7-| 
E|---8-8-------------|--------------------| 

G|-------9-7----h12--|--------------------| 
D|-------------------|--------------------| 
A|-----------10------|-5--5-7-5/7-7-7/8-7-| 
E|-7-8-8-------------|--------------------| 

G|-------9-7----h12--|-5/8--8-8-8-8-8-8-|-8-8-8-8-12--11--|-9--------| 
D|-------------------|------9-9-9-9-9-9-|-9-9-9-9---------|----------| 
A|-----------10------|------------------|-----------------|----------| 
E|-7-8-8-------------|------7-7-7-7-7-7-|-7-7-7-7-10--11--|-0--------| 


************************************ 

| ~   vibrato 
| h   Hammer-on 
| /   Slide up 
| \   Slide down 

************************************ 

https://www.youtube.com/watch?v=nJ3X2wFOtFc 
		  

See also:

bass Deep Purple - Soldier Of Fortune bass Deep Purple - Into The Fire bass Deep Purple - Knocking At Your Back Door bass Deep Purple - Child in time bass Deep Purple - Smoke On The Water bass Deep Purple - Speed King
e-chords

Other versions:

bass Davie504 - Boulevard Of Broken bass Green Day - Boulevard of Broken Dreams bass Green Day - Boulevard Of Broken Dreams (ver. 2)
auto scroll beats size up size down change color hide chords drawings
tab show chords e-chords YouTube Clip e-chords hide all tabs e-chords go to top tab

share