Cult Of Luna

To Be Remembered

Cult Of Luna

bass

by  TAMAMOREIRA

save to print version add songbook text version e-mail correct tuner
chordsukulelecavacokeyboardtabbassdrumsharmonicaflute Guitar Pro
close

there isn't a video lesson for this song

chords

To Be Remembered

	  		
Intro/Chorus (0:00)  
D |----------------------| 
A |----------------------| 
E |----------------------| 
B |--5~-7-3~-7-5~-10-8~--| 

Verse (1:00) 
D |---------------------------------------------------| 
A |---------------------------------------------------| 
E |---------------------------------------------------| 
B |--0-0-5-5-5-5-3-3-3-3-3-3-0-0-5-5-5-5-3-3-7-7-7-7--| 

Verse Variation (Played every second time) 
D |-------------------------------------------| 
A |-------------------------------------------| 
E |-------------------------------------------| 
B |--0-0-5-5-5-5-3-3-3-3-3-3-5-5-5-5-8-8-8-8--| 

PreChorus (1:29) 
D |---------------------------------| 
A |---------------------------------| 
E |---------------------------------| 
B |--5~-3~-5~-3~-0-3-1-0-1-3-1-3-5--| 

Chorus (1:58) 
D |----------------------| 
A |----------------------| 
E |----------------------| 
B |--5~-7-3~-7-5~-10-8~--| 

Verse (with variation) (2:27) 
D |---------------------------------------------------| 
A |---------------------------------------------------| 
E |---------------------------------------------------| 
B |--0-0-5-5-5-5-3-3-3-3-3-3-0-0-5-5-5-5-3-3-7-7-7-7--| 

Verse Variation (Played every second time) 
D |-------------------------------------------| 
A |-------------------------------------------| 
E |-------------------------------------------| 
B |--0-0-5-5-5-5-3-3-3-3-3-3-5-5-5-5-8-8-8-8--| 

PreChorus (2:56) 
D |---------------------------------| 
A |---------------------------------| 
E |---------------------------------| 
B |--5~-3~-5~-3~-0-3-1-0-1-3-1-3-5--| 

Bass Solo (3:25) (easy but sounds really cool, slight distortion like the intro) 
D |-------------------------| 
A |-------------------------| 
E |-------------------------| 
B |--5~-3~-1~-5~-7-8-3~-1~--| 

Chorus (4:51) and fade out... 

D |----------------------| 
A |----------------------| 
E |----------------------| 
B |--5~-7-3~-7-5~-10-8~--| 



************************************ 

| ~  Vibrato 

************************************ 
		  

auto scroll beats size up size down change color hide chords drawings
tab show chords e-chords YouTube Clip e-chords hide all tabs e-chords go to top tab

share