Crowbar

Behind The Black Horizon

Crowbar

bass

by  ANDRSOUZA

save to print version add songbook text version e-mail correct tuner
chordsukulelecavacokeyboardtabbassdrumsharmonicaflute Guitar Pro
close

there isn't a video lesson for this song

chords

Behind The Black Horizon

	  		
Verse 
D |-----------------------------------------------| 
A |-----------------------------------------------| 
E |-----------------------------------------------| 
B |-7--5-7-7---5-7-7-8-8-7-7--5-7-7-5-5--1--1--3--| 

Chorus 
D |----------------------------------------------------------| 
A |----------------------------------------------------------| 
E |----------------------------------------------------------| 
B |-0--6--6---0-4-5-0-4-6-5-4-0--6--6--7-6---0-4-5-0-4-6-5-4-| 

Interlude 
D |---------------------| 
A |---------------------| 
E |---------------------| 
B |-3--2--2-2-1-1/2-2-2-| 

Outro 
D |-------------------------------| 
A |-------------------------------| 
E |-5-4-------8-------------------| 
B |-----0-0-0---0-0-0-0-6-6-6-5-5-| 
		  

See also:

bass Deep Purple - Space Truckin' bass Deep Purple - Burn Ver.(2) bass Deep Purple - Soldier Of Fortune bass Deep Purple - Burn (ver. 2) bass Deep Purple - Highway Star bass Deep Purple - Strange kind of woman
e-chords

Other versions:

bass Crowbar - Behind The Black Horizon
auto scroll beats size up size down change color hide chords drawings
tab show chords e-chords YouTube Clip e-chords hide all tabs e-chords go to top tab

share