Cross Canadian Ragweed

home > Cross Canadian Rag...

51 Pieces Bass Tab

Cross Canadian Ragweed

Difficulty: nolevelnolevel

by aleffederico

tuner correct add songbook print version text version save to e-mail
chordsukulelecavacokeyboardtabbassdrumsharmonicsflute Guitar Pro
chords

51 Pieces

  		
Cross Canadian Ragweed  51 pieces 

Intro 1 bar rest then 
G|----------------| 
D|----------------| 
A|-------------3--| 4x 
E|-5---3---0---=--|  

G|----------------|----------------|----------------|----------------| 
D|----------------|----------------|----------------|----------------| 
A|-3---2---0------|-5---3---2---0--|----------------|----------------| 
E|-------------2--|----------------|-5---3---0---3--|-5---3---0---3--| 

verse 1 
G|----------------|----------------|----------------|----------------| 
D|----------------|----------------|----------------|----------------| 
A|----------------|----------------|-3--------------|-3--------------| 
E|-5---3---0---3--|-5---3---0---3--|-----5---3---5--|-----5---3---5--| 

G|----------------|----------------|----------------|----------------| 
D|----------------|----------------|----------------|----------------| 
A|-5---3---0---3--|-5--------------|----------------|----------------| 
E|----------------|-----2---3---4--|-5---3---0---3--|-5---3---0---3--| 

G|----------------|----------------| 
D|----------------|----------------| 
A|----------------|----------------| 
E|-5---3---0---3--|-5---3---0---3--| 

verse 2 
G|----------------|----------------|----------------|----------------| 
D|----------------|----------------|----------------|----------------| 
A|----------------|----------------|-3--------------|-3--------------| 
E|-5---3---0---3--|-5---3---0---3--|-----5---3---5--|-----5---3---5--| 

G|----------------|----------------|----------------|----------------| 
D|----------------|----------------|----------------|----------------| 
A|-5---3---0---3--|-5--------------|----------------|----------------| 
E|----------------|-----2---3---4--|-5---3---0---3--|-5---3---0---3--| 

G|----------------|----------------| 
D|-7---5----------|----------------| 
A|---------7---6--|-5---3---1------| 
E|----------------|-------------3--| 

Chorus 1 
G|----------------|----------------|----------------|----------------| 
D|-3--------------|----------------|----------------|----------------| 
A|-----5---3---5--|-3---1---0------|----------------|----------------| 
E|----------------|-------------3--|-5---3---0---3--|-5---3---0---3--| 

G|----------------|----------------|----------------|----------------| 
D|----------------|----------------|----------------|----------------| 
A|-8---7---5------|----------------|-5---5---5---5--|-5---5---5---5--| 
E|-------------7--|-8---7---5---3--|----------------|----------------| 

G|----------------|----------------| 
D|----------------|----------------| 
A|-5---5---5---5--|-5--------------| 
E|----------------|----------------| 2 bars rest 

1st solo 
G|----------------|               G|----------------|----------------| 
D|----------------|               D|----------------|----------------| 
A|----------------|               A|-3--------------|-5--------------| 
E|-5---3---0---3--| 4x            E|-----5---3---5--|-----8---7---6--| 

G|----------------|----------------|----------------|----------------| 
D|----------------|----------------|----------------|----------------| 
A|----------------|----------------|-8---7---5------|----------------| 
E|-5---3---0---3--|-5---3---0---3--|-------------7--|-8---7---5---3--| 2x 

G|----------------|----------------|-7--------------|----------------| 
D|----------------|----------------|-----7---6---5--|-3--------------| 
A|-5---5---5---5--|-5---5---5---5--|----------------|-----5---3------| 
E|----------------|----------------|----------------|-------------4--| 

G|----------------| 
D|----------------| 
A|----------------| 
E|-5---3---0---3--| 4x 

verse 3 
G|----------------|----------------|----------------|----------------| 
D|----------------|----------------|----------------|----------------| 
A|----------------|----------------|-3--------------|-3--------------| 
E|-5---3---0---3--|-5---3---0---3--|-----5---3---5--|-----5---3---5--| 

G|----------------|----------------|----------------|----------------| 
D|----------------|----------------|----------------|----------------| 
A|-5---3---0---3--|-5--------------|----------------|----------------| 
E|----------------|-----2---3---4--|-5---3---0---3--|-5---3---0---3--| 

G|----------------|----------------| 
D|----------------|----------------| 
A|----------------|----------------| 
E|-5---3---0---3--|-5---3---0---3--| 
  
verse 4 
G|----------------|----------------|----------------|----------------| 
D|----------------|----------------|----------------|----------------| 
A|----------------|----------------|-3--------------|-3--------------| 
E|-5---3---0---3--|-5---3---0---3--|-----5---3---5--|-----5---3---5--| 

G|----------------|----------------|----------------|----------------| 
D|----------------|----------------|----------------|----------------| 
A|-5---3---0---3--|-5--------------|----------------|----------------| 
E|----------------|-----2---3---4--|-5---3---0---3--|-5---3---0---3--| 

G|----------------|----------------| 
D|----------------|----------------| 
A|----------------|----------------| 
E|-5---3---0---3--|-5---3---0---3--| 

Chorus 2 
G|----------------|----------------|----------------|----------------| 
D|----------------|----------------|----------------|----------------| 
A|-8---7---5------|----------------|----------------|----------------| 
E|-------------7--|-8---6---5---4--|-5---3---0---3--|-5---3---0---3--| 

G|----------------|----------------|----------------|----------------| 
D|----------------|----------------|----------------|----------------| 
A|-8---7---5------|----------------|-5---5---5---5--|-5---5---5---5--| 
E|-------------7--|-8---7---5---3--|----------------|----------------| 

G|----------------|----------------|----------------| 
D|----------------|----------------|----------------| 
A|-5---5---5---5--|-5---5---5---5--|-5--------------| 
E|----------------|----------------|----------------| 2 bars rest 

G|----------------|----------------|               G|----------------| 
D|-7---5----------|----------------|               G|----------------| 
A|---------7---6--|-5--------------|               D|-------------3--| 
E|----------------|-----8---7---3--|               A|-5---3---0------| 6x 

G|----------------|----------------|----------------|----------------| 
D|----------------|----------------|----------------|----------------| 
A|----------------|----------------|-8---7---5------|-------------3--| 
E|-5---3---0---3--|-5---3---0---3--|-------------7--|-8---7---5---/--| 6x 

G|----------------|                
D|----------------|                
A|-5---5---5---5--|                
E|----------------| 6x   
           
G|------------(5)-| 
D|----------------| 
A|-------------3--| 
E|-5---3---0------| 10x 

************************************ 

| /    Slide up 
| (n)  Ghost note 

************************************ 
	  

Search Paypal
auto scroll beats size up size down change color hide chords drawings
tab show chords e-chords YouTube Clip e-chords hide all tabs e-chords go to top tab