Creedence Clearwater Revival

home > Creedence Clearwat...

Hindway Bass Tab

Creedence Clearwater Revival

Difficulty: nolevelnolevel

by brunblazkowski

tuner correct add songbook print version text version save to e-mail
chordsukulelecavacokeyboardtabbassdrumsharmonicsflute Guitar Pro
chords

Hindway

  		
Standard Tuning 

Intro Piano 
G|-9-7-9-----7--7-5-7-----5--5-3-5------| 
D|-------7-9----------5-7----------3-5--| 
A|--------------------------------------| 
E|--------------------------------------| 

And now bass part 
G|-------------------------------------------| 
D|-------------------------------------------| 
A|-555555555555555-5-5-5-5-5-5-5--5--5--5----| 
E|-------------------------------------------| 

verse 1: Howdy, friend 
G|----------------------------------------------------| 
D|-5-5-3-5-55-3-3-1-3-33------------------------------| x2 
A|-----------------------3-3-1-3-33-------------------| 
E|----------------------------------3-3-1-3-33-33333--| 

Chorus 1: Well, I know you really never 
G|------------------------------------------| 
D|-5~~3~~-------------5~~3~~----------------| 
A|-------5--3-5-55--3-------5--3-5-55-5555--| 
E|------------------------------------------| 

verse 2: What's that you say? 
G|----------------------------------------------------| 
D|-5-5-3-5-55-3-3-1-3-33------------------------------| x2 
A|-----------------------3-3-1-3-33-------------------| 
E|----------------------------------3-3-1-3-33-33333--| 

Chorus 2:'Cause you know, I'm gonna miss you 
G|------------------------------------------------------------------| 
D|-5~~3~~-------------5~~3~~---------------------3----------3-------| 
A|-------5--3-5-55--3-------5--3-5-55-3-5-3--3-5---5-3--3-5----3-5--| 
E|------------------------------------------------------------------| 

G|------------------| 
D|-3-5-3-5-----3-5--| 
A|---------3-5------| 
E|------------------| 

verse 3: All aboard! 
G|------------------------------------------------------| 
D|-5-5-3-5-55-3-3-53535353------------------------------| x2 
A|-------------------------3-3-1-3-33-------------------| 
E|------------------------------------3-3-1-3-33-33333--| 

Chorus 3 
G|------------------------------------------| 
D|-5~~3~~-------------5~~3~~----------------| 
A|-------5--3-5-55--3-------5--3-5----------| 
E|------------------------------------------| 

Outro 
G|---------------------------------------------------| 
D|---------------------------------------------------| Fade out 
A|-5-5-1-5-55-5-5-5-5-5-5-5-5-5-5-5-5-5-5-5-5-5-5-5--| 
E|---------------------------------------------------| 



************************************ 

| ~  Vibrato 

************************************ 
	  

Search Paypal
auto scroll beats size up size down change color hide chords drawings
tab show chords e-chords YouTube Clip e-chords hide all tabs e-chords go to top tab