Creedence Clearwater Revival

home > Creedence Clearwat...

Have You Eever Seen The Rain Bass Tab

Creedence Clearwater Revival

Difficulty: ExpertExpert

by iurycatita

tuner correct add songbook print version text version save to e-mail
chordsukulelecavacokeyboardtabbassdrumsharmonicsflute Guitar Pro
chords

Have You Eever Seen The Rain

	  Intro: 

G -------------------54------------------------------------------ 
D -54--------------------7-5----------3-------------------------- 
A -----7-5----3--33-------------3—-33---------------------------- 
E -----------3-----------------3--------------------------------- 

Verso: 

G ---------------------------------------------------5-7--------5-7---------- 
D -------3-5---------3-5--------3-5--------2-3-5--5-5----5--5-5-------------- 
A -3--3-3-----3--3-3-----3--3-3-----3--3----------------------------3--3-3--3 
E --------------------------------------------------------------------------- 

G ---------------------------------------------------5-7--------5-7---------- 
D -------3-5---------3-5--------3-5--------2-3-5--5-5----5--5-5-----------0-2 
A -3--3-3-----3--3-3-----3--3-3-----3--3----------------------------3--3-3--- 
E --------------------------------------------------------------------------- 

Refrão: 

G ---------------------5----5-4----4-2----2-0----0-- 
D -3--3-3--3-5--5-5--5------------------------------ 
A -------------------------------------------------- 
E -------------------------------------------------- 

G ---------------------5----5-4----4-2----2-0----0-- 
D -3--3-3--3-5--5-5--5------------------------------ 
A -------------------------------------------------- 
E -------------------------------------------------- 

G ------------------------ 
D -3--3-3--3-5--5-5--5---- 
A ---------------------3-- 
E ------------------------ 
	  

there isn't a video lesson for this song

request
Search
auto scroll beats size up size down change color hide chords drawings
tab show chords e-chords YouTube Clip e-chords hide all tabs e-chords go to top tab