Creedence Clearwater Revival

home > Creedence Clearwat...

Graveyard Train Bass Tab

Creedence Clearwater Revival

Difficulty: ExpertExpert

tuner correct add songbook print version text version save to e-mail
chordsukulelecavacokeyboardtabbassdrumsharmonicsflute Guitar Pro
chords

Graveyard Train

Year: 1990 - Album: Bayou Country

  		

just repeat this the whole song                                     
G---||----------------------||------------------------------------------
D---||*--------------------*||------------------------------------------
A---||*-----5--7--5--------*||------------------------------------------
E---||---7-----------7--0---||------------------------------------------

just repeat this the whole song                                     
G---||----------------------||------------------------------------------
D---||*--------------------*||------------------------------------------
A---||*-----5--7--5--------*||------------------------------------------
E---||---7-----------7--0---||------------------------------------------

	  

Search Paypal
auto scroll beats size up size down change color hide chords drawings
tab show chords e-chords YouTube Clip e-chords hide all tabs e-chords go to top tab