Creed

With Arms Wide Open (ver. 2)

Creed

bass

save to print version add songbook text version e-mail correct tuner
chordsukulelecavacokeyboardtabbassdrumsharmonicaflute Guitar Pro
close

there isn't a video lesson for this song

chords

With Arms Wide Open (ver. 2)

	  		

 
 

Mian
G-----------------------------------------------------
D-----------------------------------------------------
A-3-3-3-3-3-3-3-02-2-2-2-2-2-0-0-0-0-0-0-0-0-0-0-0----
E-----------------------------------------------------

Chorus
G-----------------------------------------------------
D-----------------------------------------------------
A-----------3-3-3-3-3-3------------/5-5-5-5-5-5-5-----
E-1-1-1-1-1-1-----------0-0-0-0-0-0-------------------

Variantion 1
G-----------------------------------------------------
D------------------------------5-5h7------2-0---------
A-3-3-3-3-3h5-3-3--2-2-2-2h3h5--0-0-0-0-----0-0-0-----
E-----------------------------------------------------

Variation 2
G----------------------------------12-12h14-----------
D-----------------------------7-7-7-------------------
A-3-3-3-3-3-3-3-2-2-2-22h3h5-0-0-0-0------------------
E-----------------------------------------------------

Interlude
G-----------------------------------------------------
D-----------------------------------------------------
A-333-33-33-3h5-222-22-22-3h5-5-5-111-11-11-000-00-00-
E-----------------------------------------------------

Outro
G-----------------------------------------------------
D-0h2-0-----------------------------------------------
A-------3-2h3-----------------------------------------
E-----------------------------------------------------

		  

See also:

bass Elvis Presley - Love Me Tender bass Creed - One Last Breath bass Creed - Six Feet From The Edge bass Guns N' Roses - Used To Love Her bass Foo Fighters - Breakout bass The Cult - She Sells Sanctuary
e-chords

Other versions:

bass Creed - With arms wide open bass Creed - With Arms Wide Open (ver. 2) bass Creed - With Arms Wide Open (ver. 3)
auto scroll beats size up size down change color hide chords drawings
tab show chords e-chords YouTube Clip e-chords hide all tabs e-chords go to top tab

share