Creed

home > Creed

Whats This Life For Bass Tab

Creed

Difficulty: nolevelnolevel

tuner correct add songbook print version text version save to e-mail
chordsukulelecavacokeyboardtabbassdrumsharmonicsflute Guitar Pro
chords

Whats This Life For

  		

Band: 
 
Album: MY OWN PRISON
TABBED BY  THECREEDFANATIC ([email protected])


BASS INTRO
G---------------
D---------------
A--2--2--3--3--- play 1x
E---------------

CHORUS
G--------------------------------------------
D-------------------------------------------- 
A------------5-5-5--5-5--2--2--2--3-3-3--3-5-
E---3--3--3----------------------------------
VERSE
G----------------------------------
D----------------------------------
A-------------5-5-5---5-5--2-2--3-- play 1x
E----3--3--3-----------------------

let the last note ring of the above......
then play this after drum fill:
G---------------------------------------
D---------------------------------------
A----------5-5-5/2--2--2-2--3--3--3-3h5- play 7x
E-3--3--3-------------------------------

FROM VERSE TO CHORUS
G-----------------------------
D-----------------------------
A----------5-5-5--2-2-2-2-2-3- play 1x
E--3--3--3--------------------

2ND CHORUS
G---------------------------------------------
D--------------------------------------------- 
A------------5-5-5--5-5--2--2--2--3-3-3--3-5-- play 4x
E---3--3--3-----------------------------------   

END OF CHORUS
G----------------------------------
D----------------------------------
A-------------5-5-5---5-5--2-2--3-- play 1x
E----3--3--3-----------------------

INTERLUDE ("but they 'aint here anymore.....")
G-------------------------------------
D-------------------------------------
A------------------------------------- (continued below)
E--3---3--3-3-3--3-3-3-3-0-3-3--3-3-3-

'continued
G---------------------------------------
D--------------------2----2--2--5-7----
A----3--3--2-22-2-3--------------------- (continued again)
E---------------------------------------

'continued
G----------------------
D----------------------
A--5--5-5--5h7-5--3-3-33-3 then repeat interlude
E---------------------- 


The song ends without an outro just slow down a bit at the end.
Just listen to the song to find out.

For the interlude you have to listen to get the right rhythtm.
Besides that its easy.

	  

Search Paypal
auto scroll beats size up size down change color hide chords drawings
tab show chords e-chords YouTube Clip e-chords hide all tabs e-chords go to top tab