Creed

One Last Breath (ver. 2)

Creed

bass

save to print version add songbook text version e-mail correct tuner
chordsukulelecavacokeyboardtabbassdrumsharmonicaflute Guitar Pro
close

there isn't a video lesson for this song

chords

One Last Breath (ver. 2)

	  		

 - 
Album - Weathered
Standard Tuning

2nd Verse
		Repeat 2x
G ------------------------------------------------- |
D -00-0----2/7------5--5-4----00-0---2/7-----5--5-7 |
A --------------2------------------------2--------- |
E ------------------------------------------------- |

G ------------------------------------------------- |
D -00-0----2/7------5--5/7-7/9--00-0--2/7--4/9---5- |
A --------------2---------------------------------- |
E ------------------------------------------------- |

Chorus
G --------------------------------- |
D -0--0-0-------------------------- |
A --------------------2--2-2------- |
E -----------22-222----------33-333 |

G ------------------------------------- |
D -0--0-0------------------------------ |
A --------------------2--2-2----------- |
E -----------22-222----------3-3-2-2/33 |

Interlude
G ---------------------------------------------------------- |
D ---------------------------------------------------------- |
A --------------5--5/7-7/9-5--54--0--0--2-2----------------- |
E -0--0---7-5-----------------------------------3-33-2-2/333 |

G ------ |
D --0~~~ |
A ------ |
E ------ |

Chorus
G --------------------------------- |
D -0--0-0-------------------------- |
A --------------------2--2-2------- |
E -----------22-222----------33-333 |

G ------------------------------------- |
D -0--0-0------------------------------ |
A --------------------2--2-2----------- |
E -----------22-222----------3-3-2-2/33 |

G --------------------------------- |
D -0--0-0-------------------------- |
A --------------------2--2-2------- |
E -----------22-222----------33-333 |

G -------------------------------- |
D -0--0-0------------------------- |
A --------------------2--2-------- |
E -----------22-222----------3~~~~ |

		  

See also:

bass Simon & Garfunkel - The sounds of silence bass Live - Dolphin“s Cry bass Guns N' Roses - Sweet Child O' Mine bass Guns N' Roses - Civil War bass 4 Non Blondes - What`s up (ver. 1) bass Guns N' Roses - Sweet Child O' Mine (ver. 3)
e-chords

Other versions:

bass Creed - One Last Breath bass Creed - One Last Breath (ver. 2) bass Creed - One Last Breath (ver. 3) bass Creed - One Last Breath( ver. 2)
auto scroll beats size up size down change color hide chords drawings
tab show chords e-chords YouTube Clip e-chords hide all tabs e-chords go to top tab

share