Creed

home > Creed

Beautiful (ver. 2) Bass Tab

Creed

Difficulty: nolevelnolevel

tuner correct add songbook print version text version save to e-mail
chordsukulelecavacokeyboardtabbassdrumsharmonicsflute Guitar Pro
chords

Beautiful (ver. 2)

  		



Transcribed By: Ryan Huntsman  (IbanezBassMX)
Email: [email protected]

Drop D Tuning

Intro:"She wears a coat of colors...."
G-----------------------
D-----------------------   X4
A-5-5---5-5--5-5---5-5-- 
D-----------------------

Break Part, Wait for guitar riff then play:
G---------------------------------------------------------
D--------------3----3h5----2----3-0-----------------------   X1
A------------------------------------3h5-5-5--------------
D-1--1--1--0-0--0-0----0-0--0-0--------------0-0-1-1-1-1--

1st Verse "Lust she breeds in the eyes..."
G-----------------------
D-----------------------   X4
A-5-5---5-5--5-5---5-5--
D-----------------------

Chorus:"The beautiful..."
G----------------------------------------
D----------------3-----3h5-----2----3-0--   X3
A----------------------------------------
D-1--1--1--1-0-0---0-0-----0-0---0-0-----

On 4th time do this:
G----------------------
D----------------------  X1
A-3h5-5-5--------------
D---------0-0-1-1-1-1--

Bridge:"Stripped me..."
G-----------
D-----------   X8
A--------5--
D-0-0--0----

2nd Verse:"In your mind shes your companion..."
G-----------------------
D-----------------------   X10
A-5-5---5-5--5-5---5-5--
D-----------------------

2nd Chorus:"The beautiful..."
G------------------------------------
D--------------3----3h5----2----3-0--   X3
A------------------------------------
D-1--1--1--1-0-0--0-0----0-0--0-0------

On 4th time do this:
G----------------------
D----------------------  X1
A-3h5-5-5--------------
D---------0-0-1-1-1-1--

Bridge:"Stripped me..."
G-----------
D-----------  X14
A--------5--
D-0-0--0----

Ending part of Verse Interlude:
G-----------------------------------------
D-----------------------------------------   X1
A-5-5-5-5-5-5-5-5\10-10-10-10-10/9-9-9-9--
D-----------------------------------------

Interlude:"She told me where im going..."   X3
G-----------------------------------------------------------------------------------
D-----------------------------------------------------------------7-5-4-5--7-7-7-7-- 
A----------------------2--2-2-2--2-2-2-2-2-2-5--4h5--5-5-5-5--5-0--------0----------
D-5--5-5-5-4h5-5-5-5-5--------------------------------------------------------------

Chorus:"The beautiful...."
G------------------------------------
D--------------3----3h5----2----3-0--   X3
A------------------------------------
D-1--1--1--1-0-0--0-0----0-0--0-0------

On 4th time do this:
G----------------------
D----------------------  X1
A-3h5-5-5--------------
D---------0-0-1-1-1-1--

Bridge:"Stripped me..."
G-----------
D-----------   X10
A--------5--
D-0-0--0----

End Part:
G-----------------------------------
D-----------------------------------   X1
A-5-5-5-5-5-5-5-5-5--5--5--5--5-----
D-------------------------------0~-- fade Out

Thats it, I not sure if it is 100% right but thats the way 
I play it and it sounds good to me.
I wasnt sure if you play the bridge as many times as I put 
down so I tryed my best.
Please rate this tab, Thanks.

	  

Search Paypal
auto scroll beats size up size down change color hide chords drawings
tab show chords e-chords YouTube Clip e-chords hide all tabs e-chords go to top tab