Coin

Malibu 1992

Coin

bass

by  EDUCASTILHO

save to print version add songbook text version e-mail correct tuner
chordsukulelecavacokeyboardtabbassdrumsharmonicaflute Guitar Pro
close

there isn't a video lesson for this song

chords

Malibu 1992

	  		
G|-----------------------------------------------------------------------------| (0:03-0:41) 
D|---------------------------------------------------------------------------1-| 
A|-------4--------2-22--2-22-4-------------2-22--2-22--------------2-22-2-22---| 
E|--2-22---2-22-4--------------2-22-2-22-4-------------2-22-2-22-4-------------| 

G|----------------------------------------------------| (0:42-1:08) 
D|-------------------------1---------------------141--| 
A|---------------2-22-2-22---------------2-22-2-2---4-| 
E|--2-22-2-22-4--------------2-22-2-22-4--------------| 

G|-----------------------------------------| (1:09-1:20) 
D|-----------------------------------1-1-1-| 
A|---------------------2222222222222-------| 
E|--22222222222222-44----------------------| 

G|-----------------------------------------|(1:21-1:33) 
D|-------------------------------------1-1-| 
A|---------------------222222222222222-----| 
E|--22222222222222-44----------------------| 

G|----------------------------| (1:33-1:59) 
D|----------------------------| (x2) 
A|---------------2~----2~--44-| 
E|--2~---2~---4---------------| 

G|--------------------------------------| (2:00-2:13) 
D|---------------------------------1111-| 
A|--------44----------222222222222------| 
E|--222222--22222244--------------------| 

G|---------------------------| (2:14-2:25) 
D|-------------------------1-| 
A|---------------2-22-2-22---| 
E|--2-22-2-22-4--------------| 

G|---------------------------------141--| (2:26-2:39) 
D|------------------------------------4-| 
A|--------44----------111111112222------| 
E|--222222--22222244--------------------| 

G|----------------------------| (2:40-3:04) 
D|------------------------1---| (x2) 
A|---------------2-22-2-2-----| 
E|--2-22-2-22-4-------------4-| 

G|--------------------------------------| (3:05-3:18) 
D|---------------------------------141--| 
A|--------44----------222222222222----4-| 
E|--222222--22222244--------------------| 

G|-----------1-1------------------------------------------|( 3:19-3:44) 
D|--1~----4~----------------------------------------------| 
A|----------------4~-----4/2-----------------6~--6/4--4/2-| 
E|---------------------------4-2~--22222224---------------| 

G|------------------------------------|-----| (3:48-4:17) 
D|------------------------------------|-----| (x2) 
A|--------44---------2222----11112222-|-----| (1st|2nd) 
E|--222222--22222244-----4444---------|--2~-| 

G|-------------------------------| (4:30-4:42) 
D|-----------------------------1-| 
A|---------4--------2-22--2-22---| 
E|--7/2-22---2-22-4--------------| 

G|----------------------------------------| (4:43-4:55) 
D|----------------------------------141---| 
A|---------44----------222222222222-----4-| 
E|--222222----22222244--------------------| 

G|---------------------------------1-----|(4:56-5:08) 
D|-----------------------------------411-| 
A|--------44----------222222222222-------| 
E|--222222--22222244---------------------| 

G|-----------------------------------1-------|(5:09-5:21) 
D|---------------------------------1---4-1---| 
A|--------44----------222222222222---------4-| 
E|--222222--22222244-------------------------| 

G|-------------------------------------1---------|(5:22-End) 
D|---------------------------------141---41------| 
A|--------44----------222222222222----------4----| 
E|--222222--22222244--------------------------2~-| 



************************************ 

| ~  Vibrato 
| /  Slide up 
  

************************************ 
		  

auto scroll beats size up size down change color hide chords drawings
tab show chords e-chords YouTube Clip e-chords hide all tabs e-chords go to top tab

share