Coal Chamber

Loco Ver

Coal Chamber

bass

save to print version add songbook text version e-mail correct tuner
chordsukulelecavacokeyboardtabbassdrumsharmonicaflute Guitar Pro
close

there isn't a video lesson for this song

chords

Loco Ver

	  		


 
 Loco
Tabber: Jason Cosley

Tuning B E A D G 

Intro:
G|----------------------|
D|----------------------|
A|----------------------|
E|----------------------|
B|--0-0~~~~~~~-----0x---|

Pre-Verse Fill:                               
G|------------------------------|
D|------------------------------|
A|------------------------------|
E|------------------------------|
B|--0-0--000---0~------(0)------| 

G|-----------------------------|
D|-----------------------------|
A|-----------------------------|
E|-----------------------------|
B|-0-2-0-2-0-2-0-2-3-2---------|

Alternate  4x
G|-----------------------------|
D|-----------------------------|
A|-----------------------------|
E|-----------------------------|
B|-0-2-0-2-0-2-0-2-5-3---------|

Chorus:
G|----------------------------------------------------------------------|
D|----------------------------------------------------------------------|
A|----------------------------------------------------------------------|
E|----------------------------------------------------------------------|
B|-2-2-x--2--2--2-2-x--2--2--2-2-x--2--2--2-2----2--2--1-1---1--1--1-1--|

G|---------------------------------------------|
D|---------------------------------------------|
A|---------------------------------------------|
E|---------------------------------------------|
B|--1--1--1-1---1--1--1-1---1--1--0~-----(0)---|

Post Verse/Outro:
G|---------------------|
D|---------------------|
A|---------------------|
E|---------------------| 
B|---0-1-2-1---0-1-2---|

		  

See also:

bass 112 - Only You bass Dead Kennedys - California Uber Alles bass Lifehouse - Everything bass Pixies - Monkey Gone To Heaven bass Everclear - Father Of Mine bass Drowning Pool - Bodies
e-chords

Other versions:

bass Coal Chamber - Loco (ver. 2) bass Coal Chamber - Loco (ver. 3) bass Coal Chamber - Loco Ver
auto scroll beats size up size down change color hide chords drawings
tab show chords e-chords YouTube Clip e-chords hide all tabs e-chords go to top tab

share