Clutch

home > Clutch

Emily Dickinson Bass Tab

Clutch

Difficulty: nolevelnolevel

by alyslima

tuner correct add songbook print version text version save to e-mail
chordsukulelecavacokeyboardtabbassdrumsharmonicsflute Guitar Pro
chords

Emily Dickinson

	  Intro 0:00-0:12 
G|----------------------------------------------------| 
D|----------------------------------------------------| 
A|--5-----5-----5-----5-----5-----5-----5-----5-------| 
E|----------------------------------------------------| 

Verse 0:12-0:49 
G|--------------------------------------------------------------| 
D|------------------------------*10*12---12--10-----------------| 
A|--5-----5-----5-----5-----5--------------------12--10---------| 
E|--------------------------------------------------------------| 

G|----------------------------------------------------|----------------------------------------------------| 
D|----------------------------------------------------|----------------------------------------------------| 
A|--3-----3-----3-----3-----3-----3-----3-----3-------|--0-----0-----0-----0-----0-----0-----0-----0-------| 
E|----------------------------------------------------|----------------------------------------------------| 

G|----------------------------------------------------| 
D|----------------------------------------------------| 
A|--5-----5-----5-----5-----5-----5-----5-----5-------| 
E|----------------------------------------------------|  

^^^^^^^X3^^^^^^ 

G|--------------------------------------------------------------| 
D|------------------------------*10*12---12--10-----------------| 
A|--5-----5-----5-----5-----5--------------------12--10---------| 
E|--------------------------------------------------------------| 

G|----------------------------------------------------|----------------------------------------------------| 
D|----------------------------------------------------|----------------------------------------------------| 
A|--3-----3-----3-----3-----3-----3-----3-----3-------|--0-----0-----0-----0-----0-----0-----0-----0-------| 
E|----------------------------------------------------|----------------------------------------------------| 

G|----------------------------------------------------| 
D|----------------------------------------------------| 
A|--5-----5-----5-----5-----5-------------------------| 
E|----------------------------------------------------|  

Chorus 0:50-1:18 

G|----------------------------------------------------------------------------| 
D|--------------------------------3-----5--------5-----3--5-----3-------------| 
A|--5-----------------3-----5-----------------------------------------5-------| 
E|----------------------------------------------------------------------------| 

G|----------------------------------------------------------------------------| 
D|--------------------------------------------------------5-----5-----3-------| 
A|----------------------------------------------------------------------------| 
E|--3--------------------------1----------------------------------------------| 

G|----------------------------------------------------------------------------|-----------------| 
D|--5--------3----------------------------------------------------------------|-----------------| 
A|--------------------5-----------------5-----------------5-------------------|-----------------| 
E|----------------------------------------------------------------------------|--3-----1--------| 

verse 1:19-1:42 
G|--------------------------------------------------------------| 
D|------------------------------*10*12---12--10-----------------| 
A|--5-----5-----5-----5-----5--------------------12--10---------| 
E|--------------------------------------------------------------| 

G|----------------------------------------------------|----------------------------------------------------| 
D|----------------------------------------------------|----------------------------------------------------| 
A|--3-----3-----3-----3-----3-----3-----3-----3-------|--0-----0-----0-----0-----0-----0-----0-----0-------| 
E|----------------------------------------------------|----------------------------------------------------| 

G|----------------------------------------------------| 
D|----------------------------------------------------| 
A|--5-----5-----5-----5-----5-----5-----5-----5-------| 
E|----------------------------------------------------|  

G|--------------------------------------------------------------| 
D|------------------------------*10*12---12--10-----------------| 
A|--5-----5-----5-----5-----5--------------------12--10---------| 
E|--------------------------------------------------------------| 

G|----------------------------------------------------|----------------------------------------------------| 
D|----------------------------------------------------|----------------------------------------------------| 
A|--3-----3-----3-----3-----3-----3-----3-----3-------|--0-----0-----0-----0-----0-----0-----0-----0-------| 
E|----------------------------------------------------|----------------------------------------------------| 

G|----------------------------------------------------| 
D|----------------------------------------------------| 
A|--5-----5-----5-----5-----5-------------------------| 
E|----------------------------------------------------|  

Chorus 1:44-2:08 

G|----------------------------------------------------------------------------| 
D|--------------------------------3-----5--------5-----3--5-----3-------------| 
A|--5-----------------3-----5-----------------------------------------5-------| 
E|----------------------------------------------------------------------------| 

G|----------------------------------------------------------------------------| 
D|--------------------------------------------------------5-----5-----3-------| 
A|----------------------------------------------------------------------------| 
E|--3--------------------------1----------------------------------------------| 

G|----------------------------------------------------------------------------|-----------------| 
D|--5--------3----------------------------------------------------------------|-----------------| 
A|--------------------5-----------------5-----------------5-------------------|-----------------| 
E|----------------------------------------------------------------------------|--3-----1--------| 

G|----------------------------------------------------------------------------| 
D|--------------------------------3-----5--------5-----3--5-----3-------------| 
A|--5-----------------3-----5-----------------------------------------5-------| 
E|----------------------------------------------------------------------------| 

G|----------------------------------------------------------------------------| 
D|--------------------------------------------------------5-----5-----3-------| 
A|----------------------------------------------------------------------------| 
E|--3--------------------------1----------------------------------------------| 

G|----------------------------------------------------------------------------|----------------------------| 
D|--5--------3----------------------------------------------------------------|----------------------------| 
A|--------------------5-----------------5-----------------5-------------------|--------------------3--5----| 
E|----------------------------------------------------------------------------|--3--------1----------------| 

Bridge/Solo 2:09-2:48 

G|-----------------------------------|-----------------------------------| 
D|--3--------------------------------|-----------------------------------| 
A|---------5---5------------*0*3--5--|---------5---5------------*0*3--5--| x6 
E|-----------------------------------|--1--------------------------------| 

G|-----------------------------------|-----------------------------------| 
D|--3--------------------------------|-----------------------------------| 
A|---------5---5------------*0*3--5--|-----------------------------------| 
E|-----------------------------------|--3--------1-----------------------| 

Chorus 2:49-3:41 

G|----------------------------------------------------------------------------| 
D|--------------------------------3-----5--------5-----3--5-----3-------------| 
A|--5-----------------3-----5-----------------------------------------5-------| 
E|----------------------------------------------------------------------------| 

G|----------------------------------------------------------------------------| 
D|--------------------------------------------------------5-----5-----3-------| 
A|----------------------------------------------------------------------------| 
E|--3--------------------------1----------------------------------------------| 

G|----------------------------------------------------------------------------|-----------------| 
D|--5--------3----------------------------------------------------------------|-----------------| 
A|--------------------5-----------------5-----------------5-------------------|-----------------| 
E|----------------------------------------------------------------------------|--3-----1--------| 

Outro 3:42- 

G|----------------------------------------------------| 
D|----------------------------------------------------| 
A|--5-----5-----5-----5-----5-----5-----5-----5-------| x2 
E|----------------------------------------------------| 

G|----------------------------------------------------| 
D|----------------------------------------------------| 
A|--5-----5-----5-----5-----5-----5-----5-----5-------| 
E|----------------------------------------------------| 

G|----------------------------------------------------|----------------------------------------------------| 
D|----------------------------------------------------|----------------------------------------------------| 
A|--3-----3-----3-----3-----3-----3-----3-----3-------|--0-----0-----0-----0-----0-----0-----0-----0-------| 
E|----------------------------------------------------|----------------------------------------------------| 

G|----------------------------------------------------| 
D|----------------------------------------------------| 
A|--5-----5-----5-----5-----5-----5-----5-----5-------| 
E|----------------------------------------------------|  

G|----------------------------------------------------| 
D|----------------------------------------------------| 
A|--5-----5-----5-----5-----5-----5-----5-----5-------| 
E|----------------------------------------------------| 

G|----------------------------------------------------|----------------------------------------------------| 
D|----------------------------------------------------|----------------------------------------------------| 
A|--3-----3-----3-----3-----3-----3-----3-----3-------|--0-----0-----0-----0-----0-----0-----0-----0-------| 
E|----------------------------------------------------|----------------------------------------------------| 

G|----------------------------------------------------| 
D|----------------------------------------------------| 
A|--3-----3-----3-----3-----3-----3-----3-----3-------| 
E|----------------------------------------------------| 

G|--------| 
D|--------| 
A|--5-----| 
E|--------| 

Legend: 
** Grace note 
	  

there isn't a video lesson for this song

request
Search Paypal
auto scroll beats size up size down change color hide chords drawings
tab show chords e-chords YouTube Clip e-chords hide all tabs e-chords go to top tab