Citizen

You Are A Star

Citizen

bass

by  ALYSLIMA

save to print version add songbook text version e-mail correct tuner
chordsukulelecavacokeyboardtabbassdrumsharmonicaflute Guitar Pro
close

there isn't a video lesson for this song

chords

You Are A Star

	  		
Chorus 0:56 
G|---------------------------------------------------------------------------| 
D|---------------------------------------------------------------------------| 
A|---------10--10-10--3--3----------------10--10-10--3--3--------------------| 
E|-5--5-5-------------------3--3--5--5-5-------------------3--3--------------| 

G|---------------------------------------------------------------------------| 
D|---------------------------------------------------------------------------| 
A|---------10--10-10--3--3----------------10--10-10--3-----------------------| 
E|-5--5-5-------------------3--3--5--5-5-------------------------------------| 

verse 2 1:24 
G|---------------------------------------------------------------------------| 
D|---------------------------------------------------------------------------| 
A|---------------------------------------------------------------------------| 
E|-1-1-1-1-1-1-1-1-1-1-1-1-1-1-1-1-1-1-1-1-1-1-1-1-1-1-1-1-1-1-1-1-----------| 
                                                                               3x 
G|---------------------------------------------------------------------------| 
D|---------------------------------------------------------------------------| 
A|---------------------------------------------------------------------------| 
E|-0-0-0-0-0-0-0-0-0-0-0-0-0-0-0-0-0-0-0-0-0-0-0-0-0-0-0-0-0-0-0-0-----------| 

G|---------------------------------------------------------------------------| 
D|---------------------------------------------------------------------------| 
A|---------------------------------------------------------------------------| 
E|-1-1-1-1-1-1-1-1-1-1-1-1-1-1-1-1-1-1-1-1-1-1-1-1-1-1-1-1-1-1-1-1-----------| 
                                                                                
G|---------------------------------------------------------------------------| 
D|---------------------------------------------------------------------------| 
A|---------------------------------------------------------------------------| 
E|-0-0-0-0-0-0-0-0-0-0-0-0-0-0-0-0-------------------------------------------| 

Chorus 2:13 
G|---------------------------------------------------------------------------| 
D|---------------------------------------------------------------------------| 
A|---------10--10-10--3--3----------------10--10-10--3--3--------------------| 
E|-5--5-5-------------------3--3--5--5-5-------------------3--3--------------| 

G|---------------------------------------------------------------------------| 
D|---------------------------------------------------------------------------| 
A|---------10--10-10--3--3----------------10--10-10--3-----------------------| 
E|-5--5-5-------------------3--3--5--5-5-------------------------------------| 

Bridge 2:41 (make some slides at the start and play this until the end) 
G|---------------------------------------------------------------------------| 
D|---------------------------------------------------------------------------| 
A|---------10--10-10--3--3----------------10--10-10--3--3--------------------|  
E|-5--5-5-------------------3--3--5--5-5-------------------3--3--------------| 
		  

See also:

bass Deep Purple - Smoke On The Water bass Deep Purple - Lady Double Dealer bass Deep Purple - Burn Ver.(2) bass Deep Purple - Strange kind of woman bass Deep Purple - Smoke On The Water (ver. 2) bass Deep Purple - Speed King
e-chords

Other versions:

bass Citizen - You Are A Star
auto scroll beats size up size down change color hide chords drawings
tab show chords e-chords YouTube Clip e-chords hide all tabs e-chords go to top tab

share