Citizen

I Forgive No One

Citizen

bass

by  LUCICAMARGO

save to print version add songbook text version e-mail correct tuner
chordsukulelecavacokeyboardtabbassdrumsharmonicaflute Guitar Pro
close

there isn't a video lesson for this song

chords

I Forgive No One

	  		
Verse 
G|------------------------------------------------------------------------------------------------| 
D|------------------------------------------------------------------------------------------------| 
A|---------------------------------------------2-2--2--2--2-2--2--2--2-2--2--2--2-/-5-5-5-5-5-5-5-| 
E|-0-0--0--0--0-0--0--0--0-0--0--0--0-0--0--0-----------------------------------------------------| 

G|------------------------------------------------------------------------------------------------| 
D|------------------------------------------------------------------------------------------------| 
A|---------------------------------------------2-2--2--2--2-2--2--2--2-2--2--2--2-2---------------|  
E|-0-0--0--0--0-0--0--0--0-0--0--0--0-0--0--0---------------------------------------3-3-3-3-------| 

G|----------------------------| 
D|----------------------------| 
A|----------------------------| 
E|-0h1-1-1--1-1-1---0-0--0--0-| 

Chorus 
G|----------------------------------------------------------------| 
D|----------------------------------------------------------------| 
A|----------------------------------------------------------------| 
E|-1--1-1--1-1-1-0-0-0-0--0-0-0--5-5-5-5--5-5-5-/-7-7-7--8--8-8-8-| 

G|----------------------------------------------------------------| 
D|----------------------------------------------------------------| 
A|----------------------------------------------------------------| 
E|-1--1-1--1-1-1-0-0-0-0--0-0-0--5-5-5-5--5-5-5-/-7---------------| 

verse 2 
G|---------------------------------------------------------------------------| 
D|---------------------------------------------------------------------------| 
A|-2-2-2-2-2-2-2-2-2-2-2-2-2-2-2-2-2-2-2-2-2-2-2-2-/-5-5-5-5-5-5-5-5---------| 
E|---------------------------------------------------------------------------| 

G|------------------------------------------------------------------------------------------------| 
D|------------------------------------------------------------------------------------------------| 
A|---------------------------------------------2-2--2--2--2-2--2--2--2-2--2--2--2-2-2-2-----------|  
E|-0-0--0--0--0-0--0--0--0-0--0--0--0-0--0--0-------------------------------------------3-3-3-3---| 

Chorus 2 
G|----------------------------------------------------------------| 
D|----------------------------------------------------------------| 
A|----------------------------------------------------------------| 4x 
E|-1--1-1--1-1-1-0-0-0-0--0-0-0--5-5-5-5--5-5-5-/-7-7-7--8--8-8-8-| 

Bridge 
G|-----------------------------------------------------------------------| 
D|-----------------------------------------------------------------------| 
A|-3--3-3-3-3-3-3-3-3-3-3-3-3-3-3---7--6--5--5-5-5-5-5-5-5-5-5-5-5-5-5-5-| 
E|-----------------------------------------------------------------------| 

G|-----------------------------------------------------------------------| 
D|-----------------------------------------------------------------------| 
A|-3---------------------------------------------------------------------| 4x 
E|---------------------------------5-------------------------------------| 

G|-----------------------------------------------------------------------| 
D|-----------------------------------------------------------------------| 
A|-3-----------3----3----------------------------------------------------| 2x 
E|---------------------------------5-----------5----5--------------------| 

G|-----------------------------------------------------------------------| 
D|-----------------------------------------------------------------------| 
A|-3-3-3-3-3-3-3-3-3-3-3-3-3-3-3-3---------------------------------------| 
E|---------------------------------5-5-5-5-5-5-5-5-5-5-5-5-5-5-5-5-------| 

G|---------------------------------------------------------------------------| 
D|---------------------------------------------------------------------------| 
A|-3-3-3-3-3-3-3-3-3-3-3-3-3-3-3-3-----------------/-12-12-12-12-12-12-12-12-| 
E|---------------------------------5-5-5-5-5-5-5-5---------------------------| 

Chorus 3 
G|----------------------------------------------------------------| 
D|----------------------------------------------------------------| 
A|----------------------------------------------------------------|  
E|-------------------------------5-5-5-5--5-5-5-/-7-7-7--8--8-8-8-| 

G|----------------------------------------------------------------| 
D|----------------------------------------------------------------| 
A|----------------------------------------------------------------| 2x 
E|-1--1-1--1-1-1-0-0-0-0--0-0-0--5-5-5-5--5-5-5-/-7-7-7--8--8-8-8-| 

G|----------------------------------------------------------------| 
D|----------------------------------------------------------------| 
A|----------------------------------------------------------------| 
E|-1--1-1--1-1-1-0-0-0-0--0-0-0--5-5-5-5--5-5-5-/-7-7-7--8--------| 

Outro 
G|-----------------------------------------| 
D|-----------------------------------------| 
A|-----------------------------------------|  
E|-0-0--0--0--0-0--0--0--0-0--0--0--0-0--0-| 


************************************ 

| /   Slide up 
| \   Slide down 

************************************ 
		  

See also:

bass Deep Purple - Smoke On The Water bass Deep Purple - Lady Double Dealer bass Deep Purple - Burn Ver.(2) bass Deep Purple - Strange kind of woman bass Deep Purple - Smoke On The Water (ver. 2) bass Deep Purple - Speed King
e-chords

Other versions:

bass Citizen - I Forgive No One
auto scroll beats size up size down change color hide chords drawings
tab show chords e-chords YouTube Clip e-chords hide all tabs e-chords go to top tab

share