Citizen

As You Please

Citizen

bass

by  BRUNBLAZKOWSKI

save to print version add songbook text version e-mail correct tuner
chordsukulelecavacokeyboardtabbassdrumsharmonicaflute Guitar Pro
close

there isn't a video lesson for this song

chords

As You Please

	  		
Intro 0:02 

G|---------------------------------------------------------------| 
D|---------------------------------------------------------------| 
A|-3--3-3-3-3-3-3-3--3-3-3-3-3-3-3--3-3-3-3-3-3-3-7--7-7-7-7-7-7-| 
E|---------------------------------------------------------------| 
                                                                   2x 
G|---------------------------------------------------------------| 
D|---------------------------------------------------------------| 
A|-2--2-2-2-2-2-2-2--2-2-2-2-2-2---------------------------------| 
E|-------------------------------2--2-2-2-2-2-2-2--2-2-2-2-2-2-2-| 


Verse 0:23 

G|---------------------------------------------------------------| 
D|---------------------------------------------------------------| 
A|-3--3-3-3-3-3-3-3--3-3-3-3-3-3-3--3-3-3-3-3-3-3--3-3-3-3-3-3-3-| 
E|---------------------------------------------------------------| 
                                                                   4x 
G|---------------------------------------------------------------| 
D|-------------------------------4--4-4-4-4-4-4-4--4-4-4-4-4-4-4-| 
A|-2--2-2-2-2-2-2-2--2-2-2-2-2-2---------------------------------| 
E|---------------------------------------------------------------| 


Chorus 1:03 

G|--------------------------------------------------------------------------------------------| 
D|----------------------------------------------------------------------14--14-14-14-14-14-14-| 
A|-15--15-15-15-15-15-15-15--15-15-15-15-15-15-15--15-15-15-15-15-15-15-----------------------| 
E|--------------------------------------------------------------------------------------------| 
                                                                                                  2x 
G|--------------------------------------------------------------------------------------------| 
D|--------------------------------------------------------------------------------------------| 
A|-14--14-14-14-14-14-14-14--14-14-14-14-14-14-9--9-9-9-9-9-9-9--9-9-9-9-9-9-9----------------| 
E|--------------------------------------------------------------------------------------------| 


Post-Chorus 1:24 

G|---------------------------------------------------------------| 
D|---------------------------------------------------------------| 
A|-3---3---3--3--3--3-----2---2------/--9--9--9--12--12--12------| 2x 
E|---------------------------------------------------------------| 


verse 2 1:44 

G|---------------------------------------------------------------| 
D|---------------------------------------------------------------| 
A|-3--3-3-3-3-3-3-3--3-3-3-3-3-3-3--3-3-3-3-3-3-3--3-3-3-3-3-3-3-| 
E|---------------------------------------------------------------| 
                                                                   2x 
G|---------------------------------------------------------------| 
D|-------------------------------4--4-4-4-4-4-4-4--4-4-4-4-4-4-4-| 
A|-2--2-2-2-2-2-2-2--2-2-2-2-2-2---------------------------------| 
E|---------------------------------------------------------------| 


Chorus 2 2:04 

G|--------------------------------------------------------------------------------------------| 
D|----------------------------------------------------------------------14--14-14-14-14-14-14-| 
A|-15--15-15-15-15-15-15-15--15-15-15-15-15-15-15--15-15-15-15-15-15-15-----------------------| 
E|--------------------------------------------------------------------------------------------| 
                                                                                                  2x 
G|--------------------------------------------------------------------------------------------| 
D|--------------------------------------------------------------------------------------------| 
A|-14--14-14-14-14-14-14-14--14-14-14-14-14-14-9--9-9-9-9-9-9-9--9-9-9-9-9-9-9----------------| 
E|--------------------------------------------------------------------------------------------| 


Break 2:25 

G|-------------------------xxxxxxxxxxxxxxxxxxxxxxxxxxxxxxxxxxxxx-| 
D|-------------------------xxxxxxxxxxxxxxxxxxxxxxxxxxxxxxxxxxxxx-| 
A|-------------------------xxxxxxxxxxxxxxxxxxxxxxxxxxxxxxxxxxxxx-|  2x   
E|-3--3-/-7--7--2--2--2----xxxxxxxxxxxxxxxxxxxxxxxxxxxxxxxxxxxxx-| 

G|---------------------------------------------------------------| 
D|-------------------------------4-------------------------------| 
A|---------------------------------------------------------------|  2x 
E|-3-------------------------------------------------------------| 


Chorus 3 3:02 

G|---------------------------------------------------------------| 
D|---------------------------------------------------------------| 
A|-3--3-3-3-3-3-3-3--3-3-3-3-3-3-3--3-3-3-3-3-3-3-7--7-7-7-7-7-7-| 
E|---------------------------------------------------------------| 
                                                                   4x 
G|---------------------------------------------------------------| 
D|---------------------------------------------------------------| 
A|-2--2-2-2-2-2-2-2--2-2-2-2-2-2---------------------------------| 
E|-------------------------------2--2-2-2-2-2-2-2--2-2-2-2-2-2-2-| 


Outro 3:43 

G|---------------------------------------------------------------| 
D|---------------------------------------------------------------| 
A|-3--3-3-3-3-3-3-3--3-3-3-3-3-3-3--3-3-3-3-3-3-3--3-3-3-3-3-3-3-| 
E|---------------------------------------------------------------| 
                                                                   2x 
G|---------------------------------------------------------------| 
D|-------------------------------4--4-4-4-4-4-4-4--4-4-4-4-4-4-4-| 
A|-2--2-2-2-2-2-2-2--2-2-2-2-2-2---------------------------------| 
E|---------------------------------------------------------------| 



************************************ 

| x   Dead note 
| /   Slide up 

************************************ 
		  

See also:

bass Deep Purple - Burn Ver.(2) bass Deep Purple - Highway Star bass Deep Purple - Smoke On The Waterr bass Deep Purple - Strange kind of woman bass Deep Purple - Knocking At Your Back Door bass Deep Purple - Black Night
e-chords

Other versions:

bass Citizen - As You Please
auto scroll beats size up size down change color hide chords drawings
tab show chords e-chords YouTube Clip e-chords hide all tabs e-chords go to top tab

share