Chris Duran

home > Chris Duran

Único caminho Bass Tab

Chris Duran

Difficulty: ExpertExpert

by Bandhana

tuner correct add songbook print version text version save to e-mail
chordsukulelecavacokeyboardtabbassdrumsharmonicsflute Guitar Pro
chords

Único caminho

  		INTRO: 
G|-----------------------| 
D|-----------------------| 
A|-----------------------| 
E|--7~~~--4-4-4--2---0---| 


VERSOS: 
|---------------------------|---------------------------------------------------------------------| 
|---------------------------|--------------------------------------------------------------| 
|-2-2-2-2-2-2-2-2-2-2-2-2-2-|-----------------------------------------------------------| 
|---------------------------|-4-4-4-4-4-4-4-4-4-4-4-4-4-4-4-|-2-2-2-2-2-2-2-2-2-2-2-2-2-2-|-0-0-0-0-0-0-0-0-0-0-0-0-0-0-| 


Refrão: 
|-------------------------------------------------| 
|-------------------------------------------------| 
|-----2-------------------------------------------| 
|-2-4--------2-2-2-----4-4-4-----------0-0-0-0-0--| 
   Só Jesus    Eu sei    és o único caminho para mim 
	  

Search Paypal
auto scroll beats size up size down change color hide chords drawings
tab show chords e-chords YouTube Clip e-chords hide all tabs e-chords go to top tab