Chris de Burgh

home > Chris de Burgh

A Spaceman Came Travelling Bass Tab

Chris de Burgh

Difficulty: nolevelnolevel

by terr%5Fschmitz

tuner correct add songbook print version text version save to e-mail
chordsukulelecavacokeyboardtabbassdrumsharmonicsflute Guitar Pro
chords

A Spaceman Came Travelling

  		 Intro 
 Q=83 
 4/4 
  Gtr I 
  Wx7 
G|--------|| 
D|--------|| 
A|--------|| 
E|--------|| 


  1st - 4th Verses 
  Segno $ 
     H    H      H    H      H    H      H.      Q 
G||------------|-----------|-----------|-------------| 
D||o------5----|-----------|-----------|-------------| 
A||o-7---------|-5----7----|------5----|-3-------5---| 
E||------------|-----------|-3---------|-------------| 


   H    H      H    H      H    H      Q.   E Q.   E 
G|-----------|-----------|-----------|---------------| 
D|-----------|-----------|-5---------|---------------| 
A|-7---------|-3----7----|------5----|-3----3-3----3-| 
E|------7----|-----------|-----------|---------------| 


                  1.,D.S. 
   Q.   E Q.   E   W          +W 
G|---------------|----------|---------|| 
D|---------------|----------|--------o|| 
A|-3----3-3----5-|-7--------|-(7)----o|| 
E|---------------|----------|---------|| 


                            Chorus 
  2. 
   W          +H     Q  Q     Q  E E Q.   E 
G|----------|--------------||---------------| 
D|----------|--------------||---------------| 
A|-7--------|-(7)-------5--||-7--7-5--------| 
E|----------|--------8-----||--------7----7-| 


   Q  E E Q  E E   Q.   E Q.   E   Q.   E Q  Q    Q  E E Q.   E 
G|---------------|---------------|--------------|---------------| 
D|-------------4-|-5----5--------|--------------|---------------| 
A|--------7--7---|--------5----5-|-----------5--|-7--7-5--------| 
E|-8--8-8--------|---------------|-8----8-8-----|--------7----7-| 


   Q  E E Q  E E   Q.   E Q.   E   H    E Q  E   Q.   E Q  Q 
G|---------------|---------------|-------------|--------------| 
D|-------------4-|-5----5--------|-------------|--------------| 
A|--------7--7---|--------5----5-|-------------|-7----7----5--| 
E|-8--8-8--------|---------------|-8----8-8--8-|--------8-----| 


   Q  E E Q.   E   Q  E E Q  E E   Q.   E Q.   E   Q.   E Q  Q 
G|---------------|---------------|---------------|--------------| 
D|---------------|-------------4-|-5----5--------|--------------| 
A|-7--7-5--------|------5-7--7---|--------5----5-|-----------5--| 
E|--------7----7-|-8--8----------|---------------|-8----8-8-----| 


                           To Coda 
   Q  E E Q.   E   Q  E E Q  E E    Q.   E Q.   E   H    E Q  E 
G|---------------|----------------|---------------|-------------| 
D|---------------|-------------4--|-5----5--------|-------------| 
A|-7--7-5--------|------5-7--7----|--------5----5-|-------------| 
E|--------7----7-|-8--8-----------|---------------|-8----8-8--8-| 


                     Dal Segno al Coda 
   H.      +E  E   W          +W 
G|---------------|----------|---------|| 
D|---------------|----------|---------|| 
A|---------------|-7--------|-(7)-----|| 
E|-8-------(8)-8-|----------|---------|| 


 Outro 
                                 ritardando H.=H 
 Coda & 
   Q.   E Q.   E   Q  Q.   Q  E   H    Q  Q    W          +W 
G|---------------|--------------|------------|----------|--------*| 
D|-5----5--------|--------------|------------|----------|--------*| 
A|--------5----5-|--------------|---------5--|-7--------|-(7)----*| 
E|---------------|-8--8----8--8-|-8----8-----|----------|--------*| 

************************************ 
Duration Legend 

W - whole; H - half; Q - quarter; E - 8th; S - 16th; a - acciaccatura;  
+ - note tied to previous; . - note dotted; 
Duration letters will always appear directly above the note/fret number it represents the 
duration for.  Duration letters with no fret number below them represent rests. 
Uncapitalized letters represent notes that are staccato (1/2 duration).  

|  (n)   -  note tied to previous 
|   |    -  bar 
|   ||   -  double bar 
|  ||o   -  repeat start 
|  o||   -  repeat end 
************************************** 
	  

Full key step upFull key step up
Half key step upHalf key step up
Half key step downHalf key step down
Full key step downFull key step down
Search Paypal
auto scroll beats size up size down change color hide chords drawings
tab show chords e-chords YouTube Clip e-chords hide all tabs e-chords go to top tab