Choking Victim

home > Choking Victim

Five Finger Discount Bass Tab

Choking Victim

Difficulty: nolevelnolevel

tuner correct add songbook print version text version save to e-mail
chordsukulelecavacokeyboardtabbassdrumsharmonicsflute Guitar Pro
chords

Five Finger Discount

  		

- 
Transcribed by midget allstar assassin
email: [email protected]



(this is the bass intro, and the verses )
g-----------------------------------/
d-------------3-6/8-6-3----------/
a---3-6-4---------------6-4-3----/
e-4-------------------------------6/


here is the chorus
g----------------------------------------------------------------------------------------------------------
d----------------------------------------------------------------------------------------------------------
a-----------------------------------3(hold)------------------------------------4x4x4-4-4-4---4x4x4-4-4-4         (x2)
e---4(hold..)-----------------------------------1(hold)
and I- - - - - - -      wanna see              whats on sale          whats for free    


and lastly, the bridge
play this with the same rhythm as they do on the cd
g--------------------------------/
d--------------------------------/
a---------xxxx4--------xxxx6/
exxxx4---------xxxx6--------/   repeat, rinse, and your done!

Outro (hold all notes)
g---------------------------------------------/
d---------------------------------------------/
a----4-------3---------1--------0-----------/
e-------------------------------------------4/


The x= a mixture of palm muting and striking hard. Let the last note ring for the short time they allow you



Uhmmm, heres the song in its parts and how many times you play each:
Intro X4 
Verse1  X6
Chorus1  X2
Verse2 X4
Chorus2 X4
Verse3 (no words) X4
Bridge1 X4
Chorus3 X4
Outro X1

	  

Search Paypal
auto scroll beats size up size down change color hide chords drawings
tab show chords e-chords YouTube Clip e-chords hide all tabs e-chords go to top tab