Choking Victim

home > Choking Victim

Death Song Bass Tab

Choking Victim

Difficulty: nolevelnolevel

tuner correct add songbook print version text version save to e-mail
chordsukulelecavacokeyboardtabbassdrumsharmonicsflute Guitar Pro
chords

Death Song

  		

 ""
By Jordan Moffitt
[email protected]


Intro - I'm just guessing for this part cause it is hard to hear

G-----------------------------------------------------------
D-----------------------------------------------11-12-14----
A-------------------------------10-10-10-10--12-------------
E-0-let ring 3x's-------------------------------------------

Verse
G-----------------------------------------------------------
D--------------------------------------------------11-12-14-
A-7-7-7-7-7-7---------6-9----------10-10-10-10--12----------
E-------------8-8-8-7------3x's-----------------------------

Chorus
G-----------------------------------------------------------------------------
D-----------------------------------------------------------------------------
A-------------------3-3-3------------------------3-3-3------------------3-3-3-
E-3-3-3-5-5-5-0-0-0-------3-3-3-5-5-5-stop-0-0-0-------3-3-3-5-5-5-0-0-0------

G-----------------------------------------------------------------------------
D-----------------------------------------------------------------------------
A------------------------3-3-3------------------------------------------------
E-3-3-3-5-5-5-stop-0-0-0------------------------------------------------------

Bridge
G-----------------------------------------------------------------------------
D------------------------------------------------------------------------------
A-6-7-7-6-7-7-6-7-7-10-12-10-------------------------6-7-7-6-7-7-6-7-7-10-12-10
E----------------------------8-8-8-8-8-8-7-7-7-7-7-7---------------------------

G------------------------------------------------------------------------------
D------------------------------------------------------------------------------
A-------------------------6-7-7-6-7-7-6-7-7-10-12-10---------------6-7-9-7-6---
E-8-8-8-8-8-8-7-7-7-7-7-7----------------------------8-8-8-8-8-8-7-------------

G------------------------------------------------------------------------------
D------------------------------------------------------------------------------
A-6-7-7-6-7-7-6-7-7-10-12-10---------------------------------------------------
E----------------------------8-8-8-8-8-8-7-7-7-7-7-----------------------------

It's not 100% perfect but I tried.

	  

Search Paypal
auto scroll beats size up size down change color hide chords drawings
tab show chords e-chords YouTube Clip e-chords hide all tabs e-chords go to top tab