Choking Victim

home > Choking Victim

500 Channels (ver. 3) Bass Tab

Choking Victim

Difficulty: nolevelnolevel

tuner correct add songbook print version text version save to e-mail
chordsukulelecavacokeyboardtabbassdrumsharmonicsflute Guitar Pro
chords

500 Channels (ver. 3)

  		

********************************************************************
		 - 
********************************************************************

good song, simple and easy
tuning ( E A D G )
tabbed by tom

INTRO/VERSE x8
G|-------------------------------|
D|-----432-----------------------|
A|-2-22-------432----654---2--4--|
E|--------2-22---4-44----0---2---|

Chorusx4
G|--------------------|
D|--------------------|
A|-2222-----------2-4-|
E|-----2222-4444-0-2--|

POST CHORUS x2
G|--------------------|
D|--------------------|
A|-2222---------------|
E|-----2222-4444-0000-|

VERSe x2
G|-------------------------------|
D|-----432-----------------------|
A|-2-22-------432----654---2--4--|
E|--------2-22---4-44----0---2---|

Chorus x4
G|--------------------|
D|--------------------|
A|-2222-----------2-4-|
E|-----2222-4444-0-2--|

POST CHORUS x4			 and u can throw this in
G|--------------------|		|----------------|
D|--------------------|		|----444-666-222-|		
A|-2222---------------|		|-222------------|
E|-----2222-4444-0000-|		|----------------|

SOLO/INTERLUDE x4
G|-------------------------------|
D|-----432-----------------------|
A|-2-22-------432----654---2--4--|
E|--------2-22---4-44----0---2---|

Chorus x4
G|--------------------|
D|--------------------|
A|-2222-----------2-4-|
E|-----2222-4444-0-2--|

OUTRO x4			 and u can throw this in
G|--------------------|		|----------------|
D|--------------------|		|----444-666-222-|		
A|-2222---------------|		|-222------------|
E|-----2222-4444-0000-|		|----------------|

	  

Search Paypal
auto scroll beats size up size down change color hide chords drawings
tab show chords e-chords YouTube Clip e-chords hide all tabs e-chords go to top tab