Choking Victim

home > Choking Victim

500 Channels Bass Tab

Choking Victim

Difficulty: ExpertExpert

tuner correct add songbook print version text version save to e-mail
chordsukulelecavacokeyboardtabbassdrumsharmonicsflute Guitar Pro
chords

500 Channels

  		

gdae

main riff
g-------------------------------------------------------------------------
d---------42--------------------------------------------------------------
a---2222-----42-------42----------64-------2----4-------------------------
e----------------2222----42--4444----64--0---2----------------------------

chorus
g-------------------------------------------------------------------------
d-------------------------------------------------------------------------
a--2-2-2-2----------------------------------------------------------------
e-----------2-2-2-2---4-4-4-4--0-0-0-0------------------------------------

post chorus/outro
g-------------------------------------------------------------------------
d-------------------------------------------------------------------------
a--2-2222-----------------------------------------------------------------
e-----------2-2222----4-4444--0-0000--------------------------------------

	  

Search Paypal
auto scroll beats size up size down change color hide chords drawings
tab show chords e-chords YouTube Clip e-chords hide all tabs e-chords go to top tab