Chlopcy Z Placu Broni

home > Chlopcy Z Placu Br...

Kocham Wolno?? Bass Tab

Chlopcy Z Placu Broni

Difficulty: nolevelnolevel

by aleffederico

tuner correct add songbook print version text version save to e-mail
chordsukulelecavacokeyboardtabbassdrumsharmonicsflute Guitar Pro
chords

Kocham Wolno??

  		
Intro 

G|---------------------------------------------------------------------------| 
D|---------------------------------------------------------------------------| 
A|------------------5-5-5----------------------------------------------------|    x 3 
E|---7---7-7-5---7-5--------3---3-3--0---3-0-3-3-----------------------------| 

G|---------------------------------------------------------------------------| 
D|---------------------------------------------------------------------------| 
A|------------------5-5-5----------------------------------------------------|     
E|---7---7-7-5---7-5--------3---3-3-3-----------2-2-2/-----------------------| 

verse 1 

G|---------------------------------------------------------------------------| 
D|---------------------------------------------------------------------------| 
A|------------------2---2-0---2---------------2----2-0---2-------------------| 
E|-0-3---0-2-0-3------------------2--------------------------2---------------| 

G|---------------------------------------------------------------------------| 
D|---------------------------------------------------------------------------| 
A|--2----2-0---2----------------2----2-0-------------------------------------| 
E|----------------2-----------------------------3-0-3-----0-2-0-3------------| 

Chorus 

G|---------------------------------------------------------------------------| 
D|---------------------------------------------------------------------------| 
A|---------------------------------------------------------------------------|    
E|--7---7-7------2----2-2-----5----5-5-------3-----3-3-----------------------| 

G|---------------------------------------------------------------------------| 
D|---------------------------------------------------------------------------| 
A|---------------------------------------------------------------------------|    
E|--7---7-7------2----2-2-----5----5-5-------3-----3-3------3----3-----------| 

verse 2 

G|---------------------------------------------------------------------------| 
D|---------------------------------------------------------------------------| 
A|--2---2-0----2----------------2----2-0---2---------------------------------| 
E|---------------2---------------------------2-------------------------------| 

G|---------------------------------------------------------------------------| 
D|---------------------------------------------------------------------------| 
A|--2----2-0---2----------------2----2-0-------------------------------------| 
E|----------------2-----------------------------3-0-3-----0-2-0-3------------| 

Chorus 

G|---------------------------------------------------------------------------| 
D|---------------------------------------------------------------------------| 
A|---------------------------------------------------------------------------|    
E|--7---7-7------2----2-2-----5----5-5-------3-----3-3-----------------------| 

G|---------------------------------------------------------------------------| 
D|---------------------------------------------------------------------------| 
A|---------------------------------------------------------------------------|    
E|--7---7-7------2----2-2-----5----5-5-------3-------------------------------|  

Solo 

G|---------------------------------------------------------------------------| 
D|---------------------------------------------------------------------------| 
A|------------------5-5-5----------------------------------------------------|    x 4 
E|---7---7-7-5---7-5--------3---3-3--0---3-0-3-3-----------------------------| 

G|---------------------------------------------------------------------------| 
D|---------------------------------------------------------------------------| 
A|---------------------------------------------------------------------------| 
E|---2-2-2/------------------------------------------------------------------| 

Chorus 

G|---------------------------------------------------------------------------| 
D|---------------------------------------------------------------------------| 
A|---------------------------------------------------------------------------|    
E|--7---7-7------2----2-2-----5----5-5-------3-----3-3-----------------------| 

G|---------------------------------------------------------------------------| 
D|---------------------------------------------------------------------------| 
A|---------------------------------------------------------------------------|    
E|--7---7-7------2----2-2-----5----5-5-------3-----3-3-----3----3-3----------| 

verse 3 

G|---------------------------------------------------------------------------| 
D|---------------------------------------------------------------------------| 
A|--2---2-0----2----------------2----2-0---2---------------------------------| 
E|---------------2---------------------------2-------------------------------| 

G|---------------------------------------------------------------------------| 
D|---------------------------------------------------------------------------| 
A|--2----2-0---2----------------2----2-0-------------------------------------| 
E|----------------2-----------------------------3-0-3-----0-2-0-3------------| 

Chorus 

G|---------------------------------------------------------------------------| 
D|---------------------------------------------------------------------------| 
A|---------------------------------------------------------------------------|    
E|--7---7-7------2----2-2-----5----5-5-------3-----3-3-----------------------| 
                                                                                      x6 
G|---------------------------------------------------------------------------| 
D|---------------------------------------------------------------------------| 
A|---------------------------------------------------------------------------|    
E|--7---7-7------2----2-2-----5----5-5-------3-----3-3-----------------------| 



************************************ 

| /   Slide up 
| \   Slide down 

************************************ 
	  

Search Paypal
auto scroll beats size up size down change color hide chords drawings
tab show chords e-chords YouTube Clip e-chords hide all tabs e-chords go to top tab