Chameleon Circuit

Big Bang 2

Chameleon Circuit

bass

by  GUSTSILVA

save to print version add songbook text version e-mail correct tuner
chordsukulelecavacokeyboardtabbassdrumsharmonicaflute Guitar Pro
close

there isn't a video lesson for this song

chords

Big Bang 2

	  		
Verse 1 
|-----------------------------------------| 
|-----------------------------------------| 
|-5--------------------------5------------| 
|------------6------8---------------------| 
 Doctor's... Amy... Roman... Seems... 

Verse 2 
|-----------------------------------------| 
|-----------------------------------------| 
|-55555555---------------------555555555--| 
|----------66666666-88888888--------------| 
River's... feeling... Someone... He's... 

Chorus (1) 
|-----------------------------------------| 
|-----------------------------------------| 
|-5-5--7-----8---8----8----7--------------| 
|-----------------------------------------| 
 Oh my god, what will they do 
 Seems impossible to get through 
Mind is blown, bet yours is too 
Well I guess this is Doctor Who 

Then verse one format for the next 2 verses, then chorus format for the first 3 lines of  
this chorus 

|-----------------------------------------| 
|-----------------------------6-----------| 
|-5-5--7-----8---8----8----7--------------| 
|-----------------------------------------| 
 *Well I guess this is Doctor Who 

|-8-----7--------------5---6---8------7---------------5--6------7------| 
|-------------8--------------------------------8-----------------------| 
|----------------------------------------------------------------------| 
|----------------------------------------------------------------------| 
 Big... To... Earth... Eyes... Gone...Verse... Try... *  Big Bang 2 
('Verse' is actually the second sylable of universe, but it wouldnt fit) 

|-----------------------------------------| 
|--------------5--------------------------| 
|-----------------------------------------| 
|-----------------------------------------| 
  The Big Bang 2 

Then verse 2 format twice, then chorus for first three lines, then just jam 
on 
|---| 
|---| 
|-5-| 
|---| 
for the last line of that chorus. Then verse 1 format twice. Then chorus for the first  
three lines, and then 
|-----------------------------------------| 
|-----------------------------6-----------| 
|-5-5--7-----8---8----8----7--------------| 
|-----------------------------------------| 

Then verse 2 format, Then 

|-----------------------------------------| 
|-----------------------------------------| 
|-5---------------------------------------| 
|------------------------6----------------| 
 Someone's missing, the question's who? 

Don't play on 'But she remembers' 
Then play 
|------------------------------------------------------------------| 
|------------------------------------------------------------------| 
|-5--------5---------------------------------------5---------7----8| 
|---------------6---------6----8---------8-------------------------| 
 Something Old, Something New, Something Borrowed, SOMETHING BLUE! 

And then the outro riff, behind the words is 

|-----------------------------------------| 
|-----------------------------------------| 
|-5----7----8----7----5----7----8----7----| 
|-----------------------------------------| 

 
		  

See also:

bass Faith no More - Annes Song bass Faith no More - Ashes To Ashes (ver. 2) bass Faith no More - The Gentle Art Of Making Enemies bass Faith no More - I Started A Joke bass Faith no More - MidLife Crisis bass Faith no More - Malpractice
e-chords

Other versions:

bass Chameleon Circuit - Big Bang 2
auto scroll beats size up size down change color hide chords drawings
tab show chords e-chords YouTube Clip e-chords hide all tabs e-chords go to top tab

share