Carajo

Entre La Fe Y La Razon

Carajo

bass

by  ALESBARRAS

save to print version add songbook text version e-mail correct tuner
chordsukulelecavacokeyboardtabbassdrumsharmonicaflute Guitar Pro
close

there isn't a video lesson for this song

chords

Entre La Fe Y La Razon

	  		Hola a todos bueeee esta es mi primera cancion q subo, 
espero que les guste paz 


Intro guitarra y voz 

00:21 Riff 1  "Entre la fe y la Razon!!" 
G|-------------------------------------------| 
D|-------------------------------------------| 
A|-2-4-66666666666---------------------------| 
E|-------------------------------------------| 

00:27  Riff 2 
G|-------------------------------------------| 
D|-------------------------------------------| 
A|-66666666/44444444------------------2-4----|    X2 
E|------------------444444444444444----------| 

00:39 Riff 3 "Resolver la ecuacion.." 
G|-------------------------------------------| 
D|-------------------------------------------| 
A|-66666666/44444444-------------------------|    X3 
E|-----------------4444444444444444----------| 

00:58 Riff 1 

01:05 Riff 4 "No hay batalla leal......! 
G|--------------------------------------------------------- 
D|--------------------------------------------------------- 
A|-222222222266666666666666-222222222266666666666---------- 
E|-----------------------------------------------4444/2222- 


G|----------------------------------------------------------------| 
D|----------------------------------------------------------------| 
A|-222222222266666666666/44444444/22222222222222222/1111111111111-| 
E|----------------------------------------------------------------| 

01:30 Riff 2 

01:43 "Como un gran soņador.." 
G|------------------------------------------- 
D|------------------66666666666666----------- 
A|-66666666/44444444------------------------- 
E|------------------------------------------- 

G|-------------------------------------------| 
D|------------------66666666666666-----------| 
A|-66666666/44444444---------------2-4-------| 
E|-------------------------------------------| 

01:55 Riff 3 + Riff 1 
02:08 Riff 4 "No hay batalla leal..." 

02:33 Riff 5 "Solo es nuestra habilidad...." 
G|------------------------------------------ 
D|------------------------------------------ 
A|----------------99999999999777------------    x2 
E|-777777777777777--------------10101099---- 

G|----------------------------------- 
D|----------------------------------- 
A|----------------666666666666666666- 
E|-777777777777777------------------- 

G|------------------------------------| 
D|------------------------------------| 
A|------------------------------------| 
E|-777777777777777/666666666666666666-| 

02:58 
G|-------------------| 
D|-------------------| 
A|-66------------2-4-| 
E|--------44---------| 

03:05 Riff 2 
03:17 Riff 3 
03:24 Riff 1 
		  

auto scroll beats size up size down change color hide chords drawings
tab show chords e-chords YouTube Clip e-chords hide all tabs e-chords go to top tab

share