Carajo

El Que Ama Lo Que Hace

Carajo

bass

by  JOV-CORREA

save to print version add songbook text version e-mail correct tuner
chordsukulelecavacokeyboardtabbassdrumsharmonicaflute Guitar Pro
close

there isn't a video lesson for this song

chords

El Que Ama Lo Que Hace

	  		Intro Guitarra 
El bajo comienza con la bateria 

00:06   Riff 1 
G|-------------------------------------------| 
D|--------------444444444--------------------| 
A|-666666666666-----------2222222222---------| 
E|----------------------------------44446666-| 

G|----------------------------------------------| 
D|--------------444444444-----------------------| 
A|-666666666666-----------2222222222-44444444444| 
E|----------------------------------------------| 

00:18 Riff 2 "Hoy tal vez....." 
G|---------------------------------------------- 
D|---------------------------------------------- 
A|----------44-22-------------44-22--2/4/6-66-6- 
E|-2-x-2-22---------02-x-2-22------------------- 

------------------------| 
------------------------| 
-4-44-4-2-22-2--44x-44x-| (X2) 
------------------------| 

00:42  Riff 3 "Sera mejor esperar..." 
G|------------------------------------------------| 
D|------------------------------------------------| 
A|--------------------------2-2222-4444-666666666-| 
E|-4444444444444444444444-46----------------------| 

00:54 Riff 4 "Se trata de saber jugar....." 
G|---------------------------------------------------------------| 
D|--------4-4444----------------------4-4444---------------------| 
A|-6-6666--------2-2222--------6-6666--------2-2222-4444444444---| 
E|----------------------44-66------------------------------------| 

01:06 Riff 1 
01:18 Riff 2 (x1) 
01:30 Riif 3 
01:42 Riff 4 (x2) 
Solo Guitarra con esta base 
G|----------------------------------------------------- 
D|----------------------------------------------------- 
A|----------44-22-------------44-22--2/4/6-66-6-4-44-4- 
E|-2-x-2-22---------02-x-2-22-------------------------- 

-----------------------------| 
-----------------------------| 
-2-22-2-2-22-2-4-44-4-4-44-4-| 
-----------------------------| 

02:22                    "Ciego,sordo,mudo y tan lejos..." 
G|----------------|    |-----------------------------------| 
D|-44444444-------|    |-----------------------------------| 
A|---------444222-| x4 |6-66-6-4-44-4-2-22-2--44x-44x------| 
E|----------------|    |-----------------------------------| 

02:40 Riff 3 
02:52 Riff 4 (x2) 
03:18 Riff 1 
Termina en F# 
cual 
		  

Full key step upFull key step up
Half key step upHalf key step up
Half key step downHalf key step down
Full key step downFull key step down
auto scroll beats size up size down change color hide chords drawings
tab show chords e-chords YouTube Clip e-chords hide all tabs e-chords go to top tab

share