Cake

Symphony In C

Cake

bass

save to print version add songbook text version e-mail correct tuner
chordsukulelecavacokeyboardtabbassdrumsharmonicaflute Guitar Pro
close

there isn't a video lesson for this song

chords

Symphony In C

	  		

Album: Comfort Eagle
Tabbed by: Billy Pratt a.k.a bgpratt ([email protected])
---------------------------------------------------------------
rest 8 beats

G--------------------------------------------------------------
D--00000000-00000000-----------0000------5555-5-0-5-7-88888888-
A--------------------00000000-------3333-----------------------
E--------------------------------------------------------------

G------------------------------
D-----------88888888-----------
A--88888888----------88888888--
E------------------------------

G------------------------------------------------------------------------
D--00000000-----------0000------5555-5-0-5-7-88888888----------88888888--
A-----------00000000-------3333-----------------------88888888-----------
E------------------------------------------------------------------------

G-----------------------------------------------------------
D-----------------5555----------3333-2222-0000-5555---------
A--8888-7777-5555------33333333---------------------3-hold--
E-----------------------------------------------------------

G-----------------------------------------------------
D--00000000-----------0000------5555-5-0-5-7-88888888-
A-----------00000000-------3333-----------------------
E-----------------------------------------------------

G------------------------------
D-----------88888888-----------
A--88888888----------88888888--
E------------------------------

G---------------------------------------------------------------------------------
D--00000000-----------0000------5555-5-0-5-7-88888888----------88888888-88888888--
A-----------00000000-------3333-----------------------88888888--------------------
E---------------------------------------------------------------------------------

G-------------------------------
D-----------------5555----------
A--8888-7777-5555------33333333-
E-------------------------------

G-----------------------------------------------------------
D3333-2222-0000-5555-----------3333-2222-0000-5555----------
A--------------------33333333----------------------3-hold---
E-----------------------------------------------------------

during guitar solo (as soon as guitar starts up)

G---------------------------------------------------------------------------------
D--00000000-----------0000------5555-5-0-5-7-88888888----------88888888-----------
A-----------00000000-------3333-----------------------88888888----------88888888--
E---------------------------------------------------------------------------------

G---------------------------------------------------------------------------------
D--00000000-----------0000------5555-5-0-5-7-88888888----------88888888-----------
A-----------00000000-------3333-----------------------88888888----------88888888--
E---------------------------------------------------------------------------------

G---------------------------------------------------------------------------------
D--00000000-----------0000------5555-5-0-5-7-88888888----------88888888-78888888--
A-----------00000000-------3333-----------------------88888888--------------------
E---------------------------------------------------------------------------------

G------------------------------------------------------------
D-----------------5555----------3333-2222-0000-5555----------
A--8888-7777-5555------33333333---------------------33333333-
E------------------------------------------------------------

G---------------------------------
D--3333-2222-0000-5555------------
A----------------------333333333--
E---------------------------------

G-----------------------------------------------------------------------
D--3333-2222-0000-5555------------0(or 2)--3333-2222-0000-5555----------
A----------------------3333-3-1-3------------------------------3-hold---
E-----------------------------------------------------------------------

i give some notes spacing so they'll be easier to see (unlike 313533333...etc.)
enjoy cake...

		  

See also:

bass The Beatles - Day Tripper bass The Beatles - Blackbird bass Coldplay - The Scientist (ver. 3) bass Staind - Outside bass Eric Clapton - Change the World bass The Police - Every breath you Take
e-chords

Other versions:

bass Cake - Symphony In C
auto scroll beats size up size down change color hide chords drawings
tab show chords e-chords YouTube Clip e-chords hide all tabs e-chords go to top tab

share