Caifanes

¿será Por Eso?

Caifanes

bass

by  JESSBT

save to print version add songbook text version e-mail correct tuner
chordsukulelecavacokeyboardtabbassdrumsharmonicaflute Guitar Pro
close

there isn't a video lesson for this song

chords

¿será Por Eso?

(Saul Hernandez)

	  		ESTA ES LA VERSION EN VIVO CUANDO FUE LA PRESENTACION DEL DISCO EL NERVIO DEL VOLCAN  
YA QUE EN ESTUDIO SE TOCA UN POQUITO MAS RAPIDO SALUDOS 


empieza 
G---------------------------------------- 
D---------------------------------------- 
A---------------------------------------- 
E---0-000--0-000--0-000--0-000-000--0-000 

desde aquel dia me trajeron para aca sera  
por que no me dejaba rasurar 
G------------------------------------------ 
D------------------------------------------ 
A------------------------------------------ 
E--0-000-0-000-0-000-0-000-0-000-000-0-000- 

ya no me hablan ni siquiera las hormigas 
G----------------------------------------- 
D----------------------------------------- 
A------7----------------------6----------- 
E7------------77--------7-------------77-- 

sera por que no saben que ando por aqui 
G----------------------------------------- 
D----------------------------------------- 
A------4-----------------------3---------- 
E4------------44---------3-------------33- 

****los sostienes en fa sostenido  de este modo 
que tape todo***** 
G----------------------- 
D----------------------- 
A----------------------- 
E--2222222222222222222-- 

desde aquel dia no me he dejado tocar  
G----------------------------------------- 
D----------------------------------------- 
A-------7-----------------------6--------- 
E7-------------77--------7------------77-- 

solo mis unñas me pueden acariciar 
G----------------------------------------- 
D----------------------------------------- 
A-------4----------------------3---------- 
E4-------------44--------3------------33-- 

por eso me pongo un saco  

G-------------------------------------- 
D----4---2----------------------------- 
A-------------------------------------- 
E------------3-2--2*--5---2------------ 
        *slide 

tomo la navaja 
G-------------------------------------- 
D----4---2----------------------------- 
A-------------------------------------- 
E------------3-2--2*--5---2------------ 
              *slide 
y salgo a clavar 
G--------------------- 
D---------------------- 
A---------------------- 
E-------5-----8888888-- 

sera por eso que no me dejan salir 
G----------------------------------------- 
D----------------------------------------- 
A------5-----------------------9---------- 
E5------------55---------9-------------99- 

sera por eso que me dan electroshocks 
G----------------------------------------- 
D----------------------------------------- 
A------3---------------------------------- 
E3------------33---------2-----------2222- 


sera por eso que no me dejan salir 
G----------------------------------------- 
D----------------------------------------- 
A------5-----------------------9---------- 
E5------------55---------9-------------99- 

sera por eso que me dan electroshocks 
G----------------------------------------- 
D----------------------------------------- 
A------3---------------------------------- 
E3------------33---------2-----------2222- 


BUENO YA DE AHI SE SIGUE LA MISMA ESTRUCTURA BUENO OJALA Y LES SIRVA 
MANDEN TABLATURAS DE BAJO LAS DE CAIFANES Y TODAS LAS QUE TENGAN ADIOS
		  

See also:

bass Heroes del silencio - Malas Intenciones bass Heroes del silencio - Metamorfosis bass Heroes del silencio - Decadencia bass Caifanes - Nos Vamos Juntos bass Heroes del silencio - Avalancha bass Heroes del silencio - Acústica 1993
e-chords

Other versions:

bass Caifanes - ¿será Por Eso?
auto scroll beats size up size down change color hide chords drawings
tab show chords e-chords YouTube Clip e-chords hide all tabs e-chords go to top tab

share