Caifanes

Para Que No Digas Que No Pienso En Tí

Caifanes

bass

by  JESSBT

save to print version add songbook text version e-mail correct tuner
chordsukulelecavacokeyboardtabbassdrumsharmonicaflute Guitar Pro
close

there isn't a video lesson for this song

chords

Para Que No Digas Que No Pienso En Tí

(Saul Hernández / Saül Hernández)

	  		En esta rola tengo duda si es con D o con F#m ya que el 
bajo los riffs que hace son sobre la base de F#m y en 
las segundas estrofas es la tónica, quinta y séptima  
menor  de esta misma y las partituras que tengo vienen 
en tono de D... 

Para que esta rola este perfectamente bien debes escucharla 
varias veces para agarrar bien los tiempos... 

  Intro con guitarra... 
  D  G    D  G        A  G         D  G 
G|------------|------------|------------|| 
D|------------|-----11-----|-----11-----|| 
A|5s10s12s9s10|10h12—-12s10|10h12—-9s10-|| 
E|------------|------------|------------|| 

  Ando buscando… 
  D            G            D            G 
G|------------|------------|------------|------------| Así hasta 
D|------------|-----------5|---4--------|-----------5| el primer 
A|------------|------------|------------|------------| coro... 
E|---2--2-----|----3--3----|---2--2-----|---3--3-----| 

  Para que no digas ... 
  A     G      D     G      A     G      Bm    G  
G|------------|------------|------------|------------| 
D|------------|------------|------------|------5-----| 
A|------------|5-----------|------------|2-----------| 
E|5-----3-----|------3-----|5-----3-----|------------| 

  A     G      D     G      A     G      Bm    G 
G|------------|------------|------------|------------| 
D|------------|------------|------------|----7-54----| 
A|------------|5-----------|------------|--5-----75s2| 
E|5-----3-----|------3-----|5-----3-----|7-----------| 

  Segundo solo de guitarra... 
  D            G            D            G 
G|------------|------------|------------|------------| 
D|---------2-4|--------5-5-|---------2-4|--------5-5-| 
A|-------4----|------------|-------4----|------------| 
E|2-2---------|x-3---------|2-2---------|x-3---------| 

  A            G            D            G          
G|------------|------------|------------|------------| 
D|------------|------------|---------2-4|-------7s9s7| 
A|------------|------------|-------4----|------------| 
E|5--5--5-----|3--3--3-----|2-2---------|3-3---------| 

  Ando entre seres... 
  D            G            D            G 
G|------------|------------|------------|------------| 
D|------2-4-2-|--------5-5-|------2-4-2-|--------5-5-| 
A|-----4-----4|------------|-----4-----4|------------| 
E|2-2---------|3-3---------|2-2---------|3-3---------| 
 |******************** 2  veces *********************|    

 3er solo de guitarra... 
  D            G            D            G 
G|------------|------------|------------|------------| 
D|-------2-4-2|-------5s7s5|-------2-4-2|-------7s9s7| 
A|------4-----|------------|------4-----|------------| 
E|2-2---------|3-3---------|2-2---------|3-3---------| 

  Tengo en mis ojos… 
  D            G            D            G  
G|------------|------------|------------|------------| 
D|-------2-4-2|----------5-|-------2-4-2|--------5-5-| 
A|------4-----|------------|------4-----|------------| 
E|2-2---------|3-3---------|2-2---------|3-3---------| 

  D            G            D            G  
G|------------|------------|------------|------------| 
D|-------2-4-2|---------5-5|-------2-4-2|-------5s7s5| 
A|------4-----|------------|------4-----|------------| 
E|2-2---------|3-3---------|2-2---------|3-3---------| 

  Para que no digas... 
  A            G            D            G 
G|------------|------------|------------|------------| 
D|------------|------------|----4-4h5-4-|------------| 
A|---5--4-----|--3---2-2-2s|55-5-5-----5|-----2------| 
E|5--------5--|3---3--3----|------------|3--3---3----| 

  A            G            Bm           G 
G|------------|------------|------------|------------| 
D|------------|------------|------------|5-4-2-4-2s1-| 
A|---4-4h5-4--|----2-------|------------|------------| 
E|5-5-5-----5-|3-3---3-3s--|7-7-7--5--7-|------------| 

  Para que no digas... 
  A            G            D            G 
G|------------|------------|------------|------------| 
D|------------|------------|----4-4h5-4-|------------| 
A|----5-4-----|---3-2-2—-2s|55-5-5-----5|---2-2h3-2h5| 
E|5-5-----5---|3-3---3-3---|------------|3-3-3-------| 

  A            G            Bm           Em 
G|------------|------------|------------|------------| 
D|------------|------------|------------|------------| 
A|---4—4h5-4--|----2-------|------------|7-7-7-7-7-7-| 
E|5-5-5-----5-|3-3---3-3s--|7-7-7--5--7-|------------| 

  Puente... 
G|------------|------------|------------|------------| 
D|------------|5-h-7--5----|------------|------------| 
A|5-h-7--5---7|------------|------------|7-7-7-7-7-7-| 
E|------------|------------|------------|------------| 

  Para que no digas... 
  A            G            D            G  
G|------------|------------|------------|------------| 
D|------------|------------|----4-4h5-4-|------------| 
A|----5-4-----|---3-2-2—-2s|55-5-5-----5|---2—2h3-2h5| 
E|5-5-----5---|3-3---3-3---|------------|3-3-3-------| 

  A            G            Bm           G 
G|------------|------------|------------|------------| 
D|------------|------------|------------|------------| 
A|----5-4-----|---3-2-2-2--|------------|----2-------| 
E|5-5-----5---|3-3---3-3-3s|7-7-5--7-7-5|3-3---3-----| 

Repite lo mismo dos vueltas más y en la tercera agregamos 
el riff del puente... 


Dudas preguntas o comentarios escribe a: [email protected]
		  

Full key step upFull key step up
Half key step upHalf key step up
Half key step downHalf key step down
Full key step downFull key step down
hide glossary

See also:

bass Heroes del silencio - Malas Intenciones bass Heroes del silencio - Metamorfosis bass Heroes del silencio - Decadencia bass Caifanes - Nos Vamos Juntos bass Heroes del silencio - Avalancha bass Heroes del silencio - Acústica 1993
e-chords

Other versions:

bass Caifanes - Para Que No Digas Que No Pienso En Tí
auto scroll beats size up size down change color hide chords drawings
tab show chords e-chords YouTube Clip e-chords hide all tabs e-chords go to top tab

share