Breakbot

Still Waters

Breakbot

bass

by  ANG-LETRA

save to print version add songbook text version e-mail correct tuner
chordsukulelecavacokeyboardtabbassdrumsharmonicaflute Guitar Pro
close

there isn't a video lesson for this song

chords

Still Waters

	  		
Intro 
G|----------------|----------------|----------------|----------------| 
D|----------------|----------------|----------------|----------------| 
A|----------------|----------------|----------------|----------------| 
D|----------------|----------------|----------------|----------------| 
  1 + 2 + 3 + 4 +  1 + 2 + 3 + 4 +  1 + 2 + 3 + 4 +  1 + 2 + 3 + 4 + 

G|--------------------|--------------------|----------------|----------------| 
D|--------------------|--------------------|------7-r-------|----------------| 
A|--------------------|--------------------|---7------------|----------------| 
D|----3h5p3-r---------|----3h5p3-r---------|----------------|----------------| 
  1 + 2 e + a 3 + 4 +  1 + 2 e + a 3 + 4 +  1 + 2 + 3 + 4 +  1 + 2 + 3 + 4 + 

Riff 1 (0:32) 
G|----------------|----------------|----------------|--------------------| 
D|---------(3)----|---------(3)----|----------------|--------------------| 
A|----------------|----------------|------0-----0-r-|----0-3-5-r-----5---| (x4) 
D|0--2--3-----3---|3--2--3-----3---|5--5------------|--------------------| 
  1 + 2 + 3 + 4 +  1 + 2 + 3 + 4 +  1 + 2 + 3 + 4 +  1 + 2 e + a 3 + 4 + 

Interlude 
G|----------------|----------------|----------------|----------------| 
D|----------------|----------------|----------------|----------------| 
A|----------------|----------------|----------------|----------------| 
D|0--2--3-r-------|----------------|----------------|----------------| 
  1 + 2 + 3 + 4 +  1 + 2 + 3 + 4 +  1 + 2 + 3 + 4 +  1 + 2 + 3 + 4 + 

G|----------------|----------------|----------------|----------------| 
D|----------------|----------------|----------------|----------------| 
A|----------------|----------------|----------------|----------------| 
D|----------------|----------------|----------------|----------------| 
  1 + 2 + 3 + 4 +  1 + 2 + 3 + 4 +  1 + 2 + 3 + 4 +  1 + 2 + 3 + 4 + 

G|----------------|----------------|----------------|--------------------| 
D|----------------|----------3-----|----------------|--------------------| 
A|----------------|----------------|------0---3-0-r-|----0-3-5-r---------| 
D|------------3---|3--2--3-----3---|3--5------------|----------------0---| 
  1 + 2 + 3 + 4 +  1 + 2 + 3 + 4 +  1 + 2 + 3 + 4 +  1 + 2 e + a 3 + 4 + 

Riff 1 
G|----------------|----------------|----------------|--------------------| 
D|---------(3)----|---------(3)----|----------------|--------------------| 
A|----------------|----------------|------0---3-0-r-|----0-3-5-r---------| (x3) 
D|0--2--3-----3---|3--2--3-----3---|5--5------------|----------------0---| 
  1 + 2 + 3 + 4 +  1 + 2 + 3 + 4 +  1 + 2 + 3 + 4 +  1 + 2 e + a 3 + 4 + 

Riff 2 
G|----------------|----------------|------------------| 
D|------5r-------5|----------------|------------------| 
A|5--7------------|-------0r-------|0-0-3-0-5r--------| 
D|----------------|2---5---------5-|------------------| 
  1 + 2 + 3 + 4 +  1 + 2 + 3 + 4 +  1 + 2 + a 3 + 4 + 

G|----------------|----------------|----------------|------------------| 
D|----------------|----------------|----------------|------------------| 
A|----------------|----------------|-------0--------|0-0-3-0-5r-------5| (x3) 
D|0---2--3r------3|5--5--2-r------5|2---5----------5|------------------| 
  1 + 2 + 3 + 4 +  1 + 2 + 3 + 4 +  1 + 2 + 3 + 4 +  1 + 2 + a 3 + 4 + 

Bridge 
G|----------------|--------------------|--------------------|--------------------|----------------| 
D|----------------|--------------------|--------------------|--------------------|----------------| 
A|----------------|--------------------|--------------------|--------0---r-------|----------------| 
D|0---2--3r-------|----3h5p3-r---------|----3h5p3-r---------|----2-5-------------|----------------| 
  1 + 2 + 3 + 4 +  1 + 2 e + a 3 + 4 +  1 + 2 e + a 3 + 4 +  1 + 2 e + a 3 + 4 +  1 + 2 + 3 + 4 + 

G|--------------------|--------------------|----------------|----------------| 
D|--------------------|--------------------|------7-r-------|----------------| 
A|--------------------|--------------------|---7------------|----------------| 
D|----3h5p3-r---------|----3h5p3-r---------|----------------|------------0---| 
  1 + 2 e + a 3 + 4 +  1 + 2 e + a 3 + 4 +  1 + 2 + 3 + 4 +  1 + 2 + 3 + 4 + 


Riff 1 
G|----------------|----------------|---------(2)----|--------------------| 
D|---------(3)----|---------(3)----|----------------|--------------------| 
A|----------------|----------------|------0-----0-r-|----0-3-5-r---------| (x8) 
D|0--2--3-----3---|3--2--3-----3---|5--5------------|----------------0---| 
  1 + 2 + 3 + 4 +  1 + 2 + 3 + 4 +  1 + 2 + 3 + 4 +  1 + 2 e + a 3 + 4 + 

Riff 2 
G|----------------|----------------|------------------| 
D|------5r-------5|----------------|------------------| 
A|5--7------------|-------0r-------|0-0-3-0-5r--------| 
D|----------------|2---5---------5-|------------------| 
  1 + 2 + 3 + 4 +  1 + 2 + 3 + 4 +  1 + 2 + a 3 + 4 + 

G|----------------|----------------|----------------|------------------| 
D|----------------|----------------|----------------|------------------| 
A|----------------|----------------|-------0--------|0-0-3-0-5r-------5| (x3) 
D|0---2--3r------3|5--5--2-r------5|2---5----------5|------------------| 
  1 + 2 + 3 + 4 +  1 + 2 + 3 + 4 +  1 + 2 + 3 + 4 +  1 + 2 + a 3 + 4 + 

Outro 
G|----------------|----------------|----------------|----------------|--------------------| 
D|----------------|----------------|----------3-----|----------------|--------------------| 
A|----------------|----------------|----------------|------0-----0-r-|----0-3-5-r---------| 
D|0--2--3-r-------|----3h5p3-r-----|3--2--3-----3---|5--5------------|----------------0---| 
  1 + 2 + 3 + 4 +  1 + 2 + 3 + 4 +  1 + 2 + 3 + 4 +  1 + 2 + 3 + 4 +  1 + 2 e + a 3 + 4 + 

G|----------------|----------------|----------------|--------------------| 
D|---------(3)----|---------(3)----|----------------|--------------------| 
A|----------------|----------------|------0---3-0-r-|----0-3-5-r---------| repeat & fade out 
D|0--2--3-----3---|3--2--3-----3---|5--5------------|----------------0---| 
  1 + 2 + 3 + 4 +  1 + 2 + 3 + 4 +  1 + 2 + 3 + 4 +  1 + 2 e + a 3 + 4 + 



************************************ 

| (n) Optional note 
| h   Hammer-on 
| p   Pull-off 
| r   Release 

************************************ 
		  

See also:

bass Deep Purple - Burn (ver. 2) bass Deep Purple - Smoke On The Water (ver. 3) bass Deep Purple - Strange kind of woman bass Deep Purple - Into The Fire bass Deep Purple - Burn Ver.(2) bass Deep Purple - Smoke On The Water
e-chords

Other versions:

bass Breakbot - Still Waters
auto scroll beats size up size down change color hide chords drawings
tab show chords e-chords YouTube Clip e-chords hide all tabs e-chords go to top tab

share