Brand New

Desert

Brand New

bass

by  IRONPOWER4EVER

save to print version add songbook text version e-mail correct tuner
chordsukulelecavacokeyboardtabbassdrumsharmonicaflute Guitar Pro
close

there isn't a video lesson for this song

chords

Desert

	  		verse 2 01:02 
G|-----------------------------|----------------------------| 
D|-----------------------------|--------5--5----------5--5--| 
A|-----------------------------|----------------------------| 
D|--5-5---5---5---3-3---3---3--|--5-5---------0-5-5---------| 

G|-----------------------------|----------------------------| 
D|-----------------------------|--------5-------------5-----| 
A|----------------8------------|------5----5-3--------------| 
D|--5-5---5---5----------------|--5-5-----------5-5------5--| 


Pre-Chorus 2 
G|------------------------|---------------------|----------------------------|-------------------------------| 
D|------------------------|--------5-------5--5-|-----------8-----------8----|------8/10-------------------0-| 
A|------------------------|------5--------------|--------8-----8-----8-----8-|----8------10-10-10-10-10-10---| 
D|-8-8--8--8--8-8--8--8-8-|-5-5-------5-5-------|-3/8-8-----------8----------|-8-----------------------------| 


Chorus 2 
G|---------------------------------|---------------------------------| 
D|---------5-----------------------|---------5-----------------------| 
A|-------5----5--------3-5--5-5-3--|-------5----5--------3-5--5-5-3--| 
D|--5-5---------5--3-3-------------|--5-5---------5--3-3-------------| 

G|---------------------------------|---------------------------------| 
D|---------5-----------------------|---------5-----------------------| 
A|-------5----5--------3-5--5-5-3--|-------5----5--------------------| 
D|--5-5---------5--3-3-------------|--5-5---------5--3---------------| 


Break 
G|-------------------|-------------------|-------------------|-------------------| 
D|-------------------|--3----------------|--5----------------|--3----------------| 
A|-------------------|-------------------|-------------------|-------------------| 
D|--5----------------|-------------------|-------------------|-------------------| 


verse 3 
G|-----------------------------|----------------------------| 
D|-----------------------------|--------5--5----------5--5--| 
A|-----------------------------|----------------------------| 
D|--5-5---5---5---3-3---3---3--|--5-5---------0-5-5--------3| 

G|-------------------------------|----------------------------| 
D|-------------------------------|--------5------------5-5----| 
A|----------------8-8--8--8--5-3-|------5----5-3--------------| 
D|--5-5---5---5------------------|--5-5-----------5-5------3--| 


Pre-Chorus 3 
G|---------------------------|-----------------------------| 
D|----------8-----------8----|----------5---------5--5-----| 
A|-------8-----8-----------8-|--------5--------------------| 
D|--8-8-----------8-8--------|-8-5-5-------3-5-5--------3--| 

G|---------------------------|-----------------10-------10-------10-----| 
D|----------8-----------8----|------8/10-10h12----10h12----10h12----12--| 
A|-------8-----8-----8-----8-|----8-------------------------------------| 
D|--8-8-----------8----------|-8----------------------------------------| 


Chorus 3 
G|---------------------------------|---------------------------------| 
D|---------5-----------------------|---------5-----------------------| 
A|-------5----5--------3-5--5-5-3--|-------5----5--------3-5--5-5-3--| 
D|--5-5---------5--3-3-------------|--5-5---------5--3-3-------------| 

G|---------------------------------|---------------------------------| 
D|---------5-----------------------|---------5-----------------------| 
A|-------5----5-3------3-5--5-5-3--|-------5----5-3------3-5--5-5-3--| 
D|--5-5------------3-3-------------|--5-5------------3-3-------------| 

G|-------------------------------------|----------------------------------| 
D|---------5--5-------10-12--12-12-10--|---------5--5-5-------------------| 
A|-------5------5-8-8------------------|-------5--------5-----3-5--5-5-3--| 
D|--5-5--------------------------------|--5-5-------------3-3-------------| 

G|----------------------------------|--------------------------------------| 
D|---------5--5---------------------|---------5--5-----------10--7--7-7-5--| 
A|-------5------5-3-----3-5--5-5-3--|-------5------5-5-8--8----------------| 
D|--5-5-------------3-3-------------|--5-5---------------------------------| 

G|----------------------------------| 
D|----------------------------------| 
A|----------------------------------| 
D|--5-------------------------------| 



************************************ 

| h   Hammer-on 
| /   Slide up 

************************************ 
		  

See also:

bass Red Hot Chili Peppers - America Ghost Dance bass Good Charlotte - Footlose bass Red Hot Chili Peppers - Scar Tissue bass Red Hot Chili Peppers - Otherside bass Red Hot Chili Peppers - By the way bass Good Charlotte - Hold On (ver. 2)
e-chords

Other versions:

bass Brand New - Desert bass Cream - Deserted Cities Of The Heart
auto scroll beats size up size down change color hide chords drawings
tab show chords e-chords YouTube Clip e-chords hide all tabs e-chords go to top tab

share