Bon Jovi

home > Bon Jovi

You Give Love a Bad Name Bass Tab

Bon Jovi

Difficulty: EasyEasy

by Acelot

tuner correct add songbook print version text version save to e-mail
chordsukulelecavacokeyboardtabbassdrummharmonicsflute Guitar Pro
chords

You Give Love a Bad Name

Year: 1986 - Album: Cross Road

(Bon Jovi / Child / Sambora)

	  
Intro: 

G|-------------------------------------------| 
D|------------------------------1------------| 
A|-3-----1-3-1--1--3-----1----1---3------1-2-| 
E|----4---------------4-----3----------3-----| 

G|-------------------------| 
D|-------------------------| 
A|-3-----1-3-1--1--3-----1-| 
E|----4---------------4----| 

Part 1: 

G|--------------------------------------------------------------------| 
D|---------1-1---------------1-1-------------1-1----------------1-1---| 
A|-3---1-3-----3--1--3---1-3-----3---3---1-3-----3--1--3----1-3-----3-| 
E|---3-----------------3---------------3-----------------3------------| 

Part 2: 

G|------------------------------------------------------------8-8-10\-| 
D|-----------------------------------------1-1-----10----8-10---------| 
A|-----------------------------1-2-3---1-3-----3-1----10--------------| 
E|-1-1-1-1-1-1-1-1-1-1-1-1-1-1-------3--------------------------------| 

G|--------------------------------------------------------------------| 
D|--------------------------------------------------------------------| 
A|-1-1-1-1-1-1-1-1-1-3------------------------------------------------| 
E|----------------------3-2-1-1-1-1-1-1-1-1--3-3-3-3-3--3--3--3--3--3-| 

Chorus: 

G|-----------------------------------------3-4-5--5----| 
D|----------------------------------1---------------5--| 
A|-3-----1-3-1--1--3--1------1----1---3----------------| 
E|----4-------------------4-----3----------------------| 

G|------------------------------------------------| 
D|----------------------------------1-------------| 
A|-3-----1-3-1--1--3--3-1----1----1---3---1-----1-| 
E|----4-------------------4-----3------------4----| 

Solo: 

G|-------------------------------------------------------| 
D|-------------------------------------------------------| 
A|-10\--3-----1-3-1--1--3------1-3----1-3-1-3-3h5-3----1-| 
E|---------4---------------1-3------4----------------3---| 

G|----------------------------------------------------------------| 
D|----------------------------------------------------------------| 
A|-3-----1-3-1--1--3-------3--------------------------------------| 
E|----4---------------3-3-----4--3-3-3-3-3-3-3-3-3-3-3-3-3-3-3-3--| 

End Chorus: 

G|-------------------------------------------| 
D|-------------------------------------------| 
A|-15-15-15-15-15---15-15-15-15---15-15-15\--| 
E|-------------------------------------------| 

G|-----------------------------------------3-4-5--5----| 
D|----------------------------------1---------------5--| 
A|-3-----1-3-1--1--3--1------1----1---3----------------| 
E|----4-------------------4-----3----------------------| 

G|--------------------------------------------| 
D|----------------------------------1---------| 
A|-3-----1-3-1--1--3--3-1----1----1---3--1----| 
E|----4-------------------4-----3-------------| 

G|-------------------------------------------------------------------| 
D|-----------------1-1------------------------------1-1--------------| 
A|-------1-1-1-1-3-----3-3-3-3-1-1--------1-1-1---1-----3-3-3-3-1-1--| 
E|-4-4-4----------------------------4-4-4-------3--------------------| 

G|-------------------------------------------------------------------| 
D|-----------------1-1------------------------------1-1--------------| 
A|-------1-1-1-1-3-----3-3-3-3-1-1--------1-1-1---1-----3--------3-1-| 
E|-4-4-4----------------------------4-4-4-------3-------------3------| 

G|----------------------------------------------------------| 
D|-----------------1-1------------------------------1-1-----| 
A|-------1-1-1-1-3-----3-3-3-3-1-1--------1-1-1---1-----3---| 
E|-4-4-4----------------------------4-4-4-------3-----------| 
	  

there isn't a video lesson for this song

request
Search
auto scroll beats size up size down change color hide chords drawings
tab show chords e-chords YouTube Clip e-chords hide all tabs e-chords go to top tab