Bon Jovi

home > Bon Jovi

Thank You For Loving Me Bass Tab

Bon Jovi

Difficulty: AdvancedAdvanced

by europeu

tuner correct add songbook print version text version save to e-mail
chordsukulelecavacokeyboardtabbassdrumsharmonicsflute Guitar Pro
chords

Thank You For Loving Me

Year: 2000 - Album: Crush

  		bass comes in only after 59seconds when its sung, "thank u...") 
G----------------------------------------------------------| 
D----------------------------------------------------------| 
A-------------------2~--0~---------------------------------| 
D-0~---5~---7~---0~--------2~-3b----0~--5~--7~--0~--5~--2~-| 
 
(0.10) - 1st Verse 
G-------------------------------------------------------| 
D--------------------------------------------------------| 
A-------------------------------------------------------| 
D-5--3b--00-2---------------5---5--3------7-------------| 
 
cross my heart		   if i try, to... 
G-----------------------|--------------------------------| 
D-----------------------|--------------------------------| 
A-----2-----------------|--5555--------------0-0-0-0-0-0-| 
D-0------5--7---3--3----|-------57---9999----------------| 
 Chorus 
G--------------------------------------------------| 
D--------------------------------------------------| 
A-----------------------------222---000------------| 
D-00000--55555---77777--00000-------------222---3--| 
 
last part of Chorus (thank u for loving me) 
G------------------------| 
D------------------------| 
A------------------------| 
D-00000--55555---77777---| 
 
 
(when the lyrics are, "you pick me up when...") 
G-------------------------------------------------------| 
D-------------------------------------------------------| 
A--------------------0-0-0-0-2-0-0-0--------------------| 
D-5--7--2-4--5---7--------------------------------------| 
 
 
during the guitar solo, the bass play the same as the Chorus/repetition..listen  
and u'll get wat i mean 
 
after bridge (all i got is to give to u...) 
G--------------------------------------------------------| 
D--------------------------------------------------------| 
A--------------------------------------------------------| 
D--0--0--0--0--0-----------------------------------------| 
(these five words...tonight) 
G-------------------------------------------------------| 
D-------------------------------------------------------| 
A-------------------------------------------------------| 
D--5------7-7-----------------------\-------------------| 
 
Chorus again 
 
END 

	  

Search Paypal
auto scroll beats size up size down change color hide chords drawings
tab show chords e-chords YouTube Clip e-chords hide all tabs e-chords go to top tab