Bon Jovi

home > Bon Jovi

I'd Die For you Bass Tab

Bon Jovi

Difficulty: ExpertExpert

by snakebite

tuner correct add songbook print version text version save to e-mail
chordsukulelecavacokeyboardtabbassdrumsharmonicsflute Guitar Pro
chords

I'd Die For you

Year: 1986 - Album: Slippery When Wet

(Bon Jovi / Sambora)

  		Intro 
 |2x 
G|------------------|-------------------|-------------------|------------ 
D|*-----------------|-------------------|-------------------|------------ 
A|*-----------------|-------------------|-------------------|-3-3-2------ 
E|--5-------------5-|-1-----------------|-3~----------------|------------ 
                                          ____ 
      |2x                                |1st 
------|----------------------------------|------------------------------- 
-----*|*---------------------------------|------------------------------- 
-----*|*-------2-2-2-3-3-----------------|-------------2-2-------------3- 
------|--5-5-5-----------1-1-1-3-3-3-5-5-|-3-3-3-5-5-5-----0-0-0-5-5-5--- 
     ____ 
    |2nd 
----|-------------------------------------| 
---*|-------------------------------------| 
-3-*|-------------------3-3-2-------------| 
----|-3-3-3-3-3-3-3-3-3-------------------| 
 
Verse 1 
|-----------------|-------------------|------------------|--------------- 
|-----------------|-------------------|------------------|--------------- 
|-----------------|-------------------|------------------|--------------- 
|-5-5-5-5---------|-1~----------------|-3~---------------|-0~------------ 
 
---|------------------|-------------------|------------------|----------- 
---|-------7----------|-------------------|-------5----------|----------- 
---|-----7------------|-------------------|-----5------------|----------- 
---|-5-5--------------|-1~----------------|-3-3--------------|-0~-------- 
 
-------| 
-------| 
-------| 
-------| 
 
PreChorus                           ____ 
|2x                                |1st 
|----------------------------------|----------------------------------|- 
|*---------------------------------|---------------------------------*|- 
|*---------------------------------|-----------------3-3-3-3---------*|- 
|--1-1-1-1-1-1-1-1-5-5-5-5-3-3-3-3-|-1-1-1-1-1-1-1-1---------3-3-3-3--|- 
  ____ 
 |2nd                               | 
-|----------------------------------| 
-|----------------------------------| 
-|----------------------------------| 
-|-1--------------0~----------------| 
 
Chorus                             ____ 
|2x                               |1st 
|---------------------------------|----------------------------------|- 
|---------------------------------|---------------------------------*|- 
|-------2-2-2-3-3-----------------|-------------2-2-------------3-3-*|- 
|-5-5-5-----------1-1-1-3-3-3-5-5-|-3-3-3-5-5-5-----0-0-0-5-5-5------|- 
  
  ____ 
 |2nd 
-|---------------------------------| 
-|---------------------------------| 
-|-------------------3-3-2---------| 
-|-3-3-3-3-3-3-3-3-3---------------| 
 
Verse 2 
|-----------------|-------------------|------------------|--------------- 
|-----------------|-------------------|------------------|--------------- 
|-----------------|-------------------|------------------|--------------- 
|-5-5-5-5---------|-1~----------------|-3~---------------|-0~------------ 
 
---|--------------------------------------------------------------------- 
---|-------7-----7-------7---7-------3-----3-------3---3-------5-----5--- 
---|-----7-----7-------7---7-------3-----3-------3---3-------5-----5----- 
---|-5-5-----5-----5-5---------1-1-----1-----1-1---------3-3-----3-----3- 
 
-------------------------------------| 
-----5---5-------2-----2-------2-----| 
---5---5-------2-----2-------2---2---| 
-3---------0-0-----0-----0-0---------| 
 
PreChorus 
 
Chorus 
 
Guitar solo (repeat Chorus) 
 
PreChorus 
 
Chorus (2x) 
 
Outro 
|--------------------| 
|--------------------| 
|---------2---3------| 
|-0---5-----------5~-| 
 
...another one tabbed by ridopoco... 

	  

Search Paypal
auto scroll beats size up size down change color hide chords drawings
tab show chords e-chords YouTube Clip e-chords hide all tabs e-chords go to top tab