Bobby Vee

You Better Move On

Bobby Vee

bass

by  TERR_SCHMITZ

save to print version add songbook text version e-mail correct tuner
chordsukulelecavacokeyboardtabbassdrumsharmonicaflute Guitar Pro
close

there isn't a video lesson for this song

chords

You Better Move On

	  		
Tuning: EADG 

G|----------------------------------------------------------------| 
D|------------10----------10------------------10----------10------| x2 
A|8-------------------------------8-------------------------------| 
E|----------------------------------------------------------------| 

0:08 

G|----------------------------------------------------------------| 
D|------------10----------10------------------10------------------| 
A|8-------------------------------8-----------------------8-------| 
E|----------------------------------------------------------------| 

G|----------------------------------------------------------------| 
D|10------------------------------10------------------------------| 
A|------------10----------10------------------10----------10------| 
E|----------------------------------------------------------------| 

G|----------------------------------------------------------------| 
D|10------------------------------10----------------------10------| 
A|------------10----------10------------------10------------------| 
E|----------------------------------------------------------------| 

G|----------------------------------------------------------------| 
D|------------10----------10------------------10----------10------| 
A|8-------------------------------8-------------------------------| 
E|----------------------------------------------------------------| 

0:25 

G|----------------------------------------------------------------| 
D|------------10----------10------------------10------------------| 
A|8-------------------------------8-----------------------8-------| 
E|----------------------------------------------------------------| 

G|------------10--------------------------------------------------| 
D|8-------------------------------8-----------11------------------| 
A|------------------------8---8---------------------------8-------| 
E|----------------------------------------------------------------| 

G|----------------------------------------------------------------| 
D|------------10----------10------------------10------------------| 
A|8-------------------------------8-----------------------8-------| 
E|----------------------------------------------------------------| 

G|----------------------------------------------------------------| 
D|10----------10------------------10------------------------------| 
A|------------------------10------------------10----------7-------| 
E|------------------------------------------------8---10----------| 

G|----------------------------------------------------------------| 
D|------------10----------8---9---10----------10----------10------| 
A|8-----------------------------------------------10--------------| 
E|----------------------------------------------------------------| 

0:45 

G|----------------------------------------------------------------| 
D|------------10----------10------------------10------------------| 
A|8-------------------------------8-----------------------8-------| 
E|----------------------------------------------------------------| 

G|----------------------------------------------------------------| 
D|10----------10------------------10------------------------------| 
A|------------------------10------------------10----------10------| 
E|----------------------------------------------------------------| 

G|----------------------------------------------------------------| 
D|10------------------------------10----------------------10------| 
A|------------10----------10------------------10------------------| 
E|----------------------------------------------------------------| 

G|----------------------------------------------------------------| 
D|------------10----------10------------------10----------10------| 
A|8-------------------------------8-------------------------------| 
E|----------------------------------------------------------------| 

1:02 

G|----------------------------------------------------------------| 
D|------------10----------10------------------10------------------| 
A|8-------------------------------8-----------------------8-------| 
E|----------------------------------------------------------------| 

G|------------10--------------------------------------------------| 
D|8-------------------------------8-----------11------------------| 
A|------------------------8---8---------------------------8-------| 
E|----------------------------------------------------------------| 

G|----------------------------------------------------------------| 
D|------------10----------10------10----------------------10------| 
A|8-------------------------------------------10------------------| 
E|----------------------------------------------------------------| 

G|----------------------------------------------------------------| 
D|------------10----------10----------------------10--------------| 
A|8-------------------------------8-----------------------8-------| 
E|----------------------------------------------------------------| 

1:19 

G|------------10------------------------------10------------------|. 
D|8-------------------------------8-----------------------8-------|. 
A|------------------------8---------------------------------------|. 
E|----------------------------------------------------------------|. 
                                                                   . x2 
G|----------------------------------------------------------------|. 
D|------------10------------------------------10------------------|. 
A|8-------------------------------8-----------------------8-------|. 
E|------------------------8---------------------------------------|. 

1:35 

G|------------10------------------------------10------------------| 
D|8-------------------------------8-----------------------8-------| 
A|------------------------8---------------------------------------| 
E|----------------------------------------------------------------| 

G|----------------------------------------------------------------| 
D|------------10------------------------------7-------------------| 
A|8-----------------------8---7---5-----------------------5-------| 
E|----------------------------------------------------------------| 

G|--------------------------------------------7-------------------| 
D|5-----------5-------------------5-------------------------------| 
A|------------------------5-------------------------------5-------| 
E|----------------------------------------------------------------| 

G|----------------------------------------------------------------| 
D|10--------------8-----------8---7-----------7-----------10------| 
A|------------10----------------------------------10--------------| 
E|----------------------------------------------------------------| 

1:51 

G|----------------------------------------------------------------| 
D|------------10----------10------------------10------------------| 
A|8-------------------------------8-----------------------8-------| 
E|----------------------------------------------------------------| 

G|----------------------------------------------------------------| 
D|10------------------------------10------------------------------| 
A|------------10----------10------------------10----------10------| 
E|----------------------------------------------------------------| 

G|----------------------------------------------------------------| 
D|10------------------------------10----------------------10------| 
A|------------10----------10------------------10------------------| 
E|----------------------------------------------------------------| 

G|----------------------------------------------------------------| 
D|------------10----------10------------------10----------10------| 
A|8-------------------------------8-------------------------------| 
E|----------------------------------------------------------------| 

2:08 

G|----------------------------------------------------------------| 
D|------------10----------10------------------10------------------| 
A|8-------------------------------8-----------------------8-------| 
E|----------------------------------------------------------------| 

G|------------10--------------------------------------------------| 
D|8-------------------------------8-----------11------------------| 
A|------------------------8---8---------------------------8-------| 
E|----------------------------------------------------------------| 

G|----------------------------------------------------------------| 
D|------------10------------------10----------10----------10------| 
A|8-----------------------8---------------------------------------| 
E|----------------------------------------------------------------| 

G|----------------------------------------------------------------| 
D|------------10--------------------------------------------------| 
A|8-------------------------------8-----------10------------------| 
E|------------------------8-------------------------------8-------| 

2:25 Until fadeout. 

G|----------------------------------------------------------------| 
D|------------10--------------10--------------------------10------| 
A|8-----------------------8-------------------10------------------| 
E|----------------------------------------------------------------| 
		  

See also:

bass Vic Dana - A Girl Needs To Love And Be Loved bass The Murmaids - Huntington Flats bass The Murmaids - Heartbreak Ahead bass Quincy Jones - Soul Bossa Nova bass Eddie Floyd - High-heel Sneakers bass The Lettermen - Morning Girl
e-chords

Other versions:

bass Bobby Vee - You Better Move On
auto scroll beats size up size down change color hide chords drawings
tab show chords e-chords YouTube Clip e-chords hide all tabs e-chords go to top tab

share