Bobby Bare

Take Me As I Am

Bobby Bare

bass

by  IRONPOWER4EVER

save to print version add songbook text version e-mail correct tuner
chordsukulelecavacokeyboardtabbassdrumsharmonicaflute Guitar Pro
close

there isn't a video lesson for this song

chords

Take Me As I Am

	  		
G|----------------------------------------------------------------| 
D|----------------------------------------------------------------| 
A|----------------7---------------------------------------4-------| 
E|5-------------------------------5---------------7---------------| 

G|----------------------------------------------------------------| 
D|----------------------------------------------------------------| 
A|5-------------------------------5-----------------------4-------| 
E|----------------5-----------------------5-------7---------------| 

0:11 

G|----------------------------------------------------------------| 
D|--------------------------------------------------------4-------| 
A|5-------------------------------5---------------7---------------| 
E|----------------5-----------------------------------------------| 

G|----------------------------------------------------------------| 
D|5-------------------------------5-------------------------------| 
A|----------------5-------------------------------5---------------| 
E|--------------------------------------------------------7-------| 

G|----------------------------------------------------------------| 
D|----------------------------------------------------------------| 
A|----------------7---------------------------------------4-------| 
E|5-------------------------------5---------------7---------------| 

G|----------------------------------------------------------------| 
D|----------------------------------------------------------------| 
A|5-------------------------------5-----------------------4-------| 
E|----------------5-----------------------5-------7---------------| 

0:30 

G|----------------------------------------------------------------| 
D|--------------------------------------------------------4-------| 
A|5-------------------------------5---------------7---------------| 
E|----------------5-----------------------------------------------| 

G|----------------------------------------------------------------| 
D|5-------------------------------5---------------5-\-4-----------| 
A|----------------5---------------------------------------7---5---| 
E|----------------------------------------------------------------| 

G|----------------------------------------------------------------| 
D|----------------------------------------------------------------| 
A|----------------7---------------------------------------4-------| 
E|5-------------------------------5---------------7---------------| 

G|----------------------------------------------------------------| 
D|----------------------------------------------------------------| 
A|5-------------------------------5---------------4---------------| 
E|----------------5---------------------------------------7-------| 

0:49 

G|----------------------------------------------------------------| 
D|----------------------------------------------------------------| 
A|----------------7---------------------------------------4-------| 
E|5-------------------------------5---------------7---------------| 

G|----------------------------------------------------------------| 
D|----------------------------------------------------------------| 
A|5-------------------------------5---------------5-------6-------| 
E|----------------5-----------------------------------------------| 

G|----------------------------------------------------------------| 
D|----------------------------------------------------------------| 
A|7---------------------------------------------------------------| 
E|----------------7---------------0---------------2-------4-------| 

G|----------------------------------------------------------------| 
D|----------------------------------------------------------------| 
A|----------------7---------------------------------------4-------| 
E|5-------------------------------5---------------7---------------| 

1:08 

G|----------------------------------------------------------------| 
D|--------------------------------------------------------4-------| 
A|5-------------------------------5---------------7---------------| 
E|----------------5-----------------------------------------------| 

G|----------------------------------------------------------------| 
D|5-------------------------------5---------------5-\-4-----------| 
A|----------------5---------------------------------------7---5---| 
E|----------------------------------------------------------------| 

G|----------------------------------------------------------------| 
D|----------------------------------------------------------------| 
A|----------------7---------------------------------------4-------| 
E|5-------------------------------5---------------7---------------| 

G|----------------------------------------------------------------| 
D|----------------------------------------------------------------| 
A|5-------------------------------5-----------------------4-------| 
E|----------------5-----------------------5-------7---------------| 

1:27 

G|----------------------------------------------------------------| 
D|--------------------------------------------------------4-------| 
A|5-------------------------------5---------------7---------------| 
E|----------------5-----------------------------------------------| 

G|----------------------------------------------------------------| 
D|5-------------------------------5---------------5-\-4-----------| 
A|----------------5---------------------------------------7-------| 
E|----------------------------------------------------------------| 

G|----------------------------------------------------------------| 
D|----------------------------------------------------------------| 
A|----------------7---------------------------------------4-------| 
E|5-------------------------------5---------------7---------------| 

G|----------------------------------------------------------------| 
D|----------------------------------------------------------------| 
A|5-------------------------------5-----------------------4-------| 
E|----------------5-----------------------5-------7---------------| 

1:46 

G|----------------------------------------------------------------| 
D|--------------------------------------------------------4-------| 
A|5-------------------------------5---------------7---------------| 
E|----------------5-----------------------------------------------| 

G|----------------------------------------------------------------| 
D|5-------------------------------5-------------------------------| 
A|----------------5-------------------------------5---------------| 
E|--------------------------------------------------------7-------| 

G|----------------------------------------------------------------| 
D|----------------------------------------------------------------| 
A|----------------7---------------------------------------4-------| 
E|5-------------------------------5---------------7---------------| 

G|----------------------------------------------------------------| 
D|----------------------------------------------------------------| 
A|5-------------------------------5-----------------------4-------| 
E|----------------5-----------------------5-------7---------------| 

2:04 

G|----------------------------------------------------------------| 
D|--------------------------------------------------------4-------| 
A|5-------------------------------5---------------7---------------| 
E|----------------5-----------------------------------------------| 

G|----------------------------------------------------------------| 
D|5-------------------------------5---------------5-\-4-----------| 
A|----------------5---------------------------------------7---5---| 
E|----------------------------------------------------------------| 

G|----------------------------------------------------------------| 
D|----------------------------------------------------------------| 
A|----------------7---------------------------------------4-------| 
E|5-------------------------------5---------------7---------------| 

G|----------------------------------------------------------------| 
D|------------------------------------------------5-\-4-----------| 
A|5-------------------------------5-----------------------7---5---| 
E|----------------5-----------------------------------------------| 

G|----------------------------------------------------------------| 
D|----------------------------------------------------------------| 
A|----------------7---------------------------------------4-------| 
E|5-------------------------------5---------------7---------------| 

G|----------------------------------------------------| 
D|----------------------------------------------------| 
A|5-------------------------------5-------------------| 
E|----------------5-----------------------5---/---10--| 
		  

See also:

bass Tammy Wynette - All Night Long bass Waylon Jennings - I Think Its Time She Learned bass Trisha Yearwood - New Kid In Town bass Chris Isaak - Somebodys Crying bass Jerry Reed - One Sweet Reason bass Brooks And Dunn - Neon Moon2
e-chords

Other versions:

bass Bobby Bare - Take Me As I Am
auto scroll beats size up size down change color hide chords drawings
tab show chords e-chords YouTube Clip e-chords hide all tabs e-chords go to top tab

share