Bob Marley

home > Bob Marley

Three Little Birds Bass Tab

Bob Marley

Difficulty: BeginnerBeginner

tuner correct add songbook print version text version save to e-mail
chordsukulelecavacokeyboardtabbassdrumsharmonicsflute Guitar Pro
chords

Three Little Birds

  		  
        INTRO     X2 
G ||-----------------------------------------------------------||  
D ||-----------------------------------------------------------||  
A ||-------------7----7----------------------7--9-9------------||    
E ||-5-5-5-55------9----------5-5-5--55------------------------||       
                                        
       CHORUS    X2 
G ||-----------------------------------------------||  
D ||-----------------------------------------------||  *when you play -7-9-9- 
A ||------------7----7--------------7---7----------||   bend the notes to make that 
E ||-5-5-5-55-----9-------5-5-5-55----9------------||   warbly sound* 
 
G ||-----------------------------------------------||  
D ||-------------7---7-----------------------------||  
A ||-5-5-5--55-----9-----------------7---7---------||  
E ||-----------------------5-5-5-55----9-----------|| 
 
G ||-----------------------------------------------||  
D ||-----------------------------------------------||   
A ||------------7----7--------------7---7----------||    
E ||-5-5-5-55-----9-------5-5-5-55----9------------||    
 
G ||-----------------------------------------------||  
D ||-----------------------------------------------||  
A ||-5-5-5--55----7-9-9----------------7---7-------||  
E ||-----------------------5-5-5-55------9---------|| 
 
      VERSE 
 
G ||---------------------------------------------||  
D ||---------------------------------------------||  
A ||--------------------5-5-5-5-------7---7------||  
E ||-5-5-5---5-5-5-5--------------------9--------|| 
 
 
G ||---------------------------------------------||  
D ||---------------------------------------------||  
A ||--------------------5-5-5-5-------7-9-9------||  
E ||-5-5-5---5-5-5-5-----------------------------||  
  
 
G ||--------------------------------------------------||  
D ||--------------------------------------------------||  
A ||-------------------5-5-5---5-5-5-5---3------------||  
E ||-5-5-5---5-5-5-5----------------------------------||  
 
 
      "This is my message...." 
G ||-----------------------------------------------||  
D ||-----------------------------------------------||  
A ||-3-3-3-----5-5-5-------------------------------||  
E ||--------------------3--------------------------||  
 
corrections and stuff to: 
[email protected] 
 

	  

Search Paypal
auto scroll beats size up size down change color hide chords drawings
tab show chords e-chords YouTube Clip e-chords hide all tabs e-chords go to top tab