Bob Marley

No Woman No Cry

Bob Marley

bass Beginner beginner

save to print version add songbook text version e-mail correct tuner
chordsukulelecavacokeyboardtabbassdrumsharmonicaflute Guitar Pro
close

there isn't a video lesson for this song

chords

No Woman No Cry

Year: 1977 -

(Vicent Ford)

	  		Song Title: No Woman, No Cry  
Artist: Bob Marley  
----------------------------------------------  
  
G -------------------------  
D -------------------------  
A --0-2---3--3-2--2-0------ 
E 3-----3-------------0-1--- 
  
G ------------- 
D -----3-2-0---  
A --3-------3--- 
E -------------  
  
G -------------------------  
D -------------------------  
A --0-2---3---2---0------ 
E 3-----3--------------1--- 


		  

auto scroll beats size up size down change color hide chords drawings
tab show chords e-chords YouTube Clip e-chords hide all tabs e-chords go to top tab

share