Bob Marley

home > Bob Marley

I Shot The Sheriff Bass Tab

Bob Marley

Difficulty: ExpertExpert

by RastamanSoul

tuner correct add songbook print version text version save to e-mail
chordsukulelecavacokeyboardtabbassdrumsharmonicsflute Guitar Pro
chords

I Shot The Sheriff

Year: 1973 - Album: Gold

  		Riff 1 (x2) 
G|------------------3---5-----------------------------| 
D|-----0--/5------5-----------3---3--5--------3-3-3-5-| 
A|-1------------------------5---5----------5----------| 
E|-----------3----------------------------------------| 
 
Riff 2 (x4) 
G|-8-------7-------------------------------7-| 
D|---8-------7------------5------------------| 
A|-----6-------5------5-8---5-5-5-5-5-5-5----| 
E|-------------------------------------------| 
 
Riff 3 
G|-------------7-------5-7-8-7-5---------------------| 
D|-------------------5-------------5---------------5-| 
A|-5-5-5-5-5--------------------------5-5-5-5-5-5----| 
E|---------------------------------------------------| 
 
G|---------------------| 
D|-5--3----------------| 
A|------5-3-1-5-3-1----| 
E|-------------------3-| 
 
Variaton on Riff 3 
G|------------7-----5-7-8-7-5-7----------------------| 
D|---------------5----------------5-5---5----5---5---| 
A|-5-5-5-5-5--------------------------5----5---5-----| 
E|---------------------------------------------------| 
	  

Search Paypal
auto scroll beats size up size down change color hide chords drawings
tab show chords e-chords YouTube Clip e-chords hide all tabs e-chords go to top tab