Bob Marley

home > Bob Marley

I Know a Place Bass Tab

Bob Marley

Difficulty: nolevelnolevel

by PAULLET3

tuner correct add songbook print version text version save to e-mail
chordsukulelecavacokeyboardtabbassdrumsharmonicsflute Guitar Pro
chords

I Know a Place

  		
Intro 
G|----------------------------| 
D|-------2--1-----------------| 
A|-0-2-5------5-3-2-0-2-0-----| 
E|3----------------------5-3-0| 

verse 1 
G|-------------------------------------------------------------| 
D|-------2--1----------------------------2--1---------------4-6|  X2 
A|-0-2-5------5-3-2-0-2-0----------0-2-5------5-3-2---4-6--5---| 
E|3------------------------5-3-0-3------------------5----------| 

Chorus 
G|-----------------------------| 
D|-----------------------------|  X4 
A|3-22--------5-3-0-----4------| 
E|-----5-3--3-------2-4---5-3-0| 

verse 2 
G|-------------------------------------------------------------| 
D|-------2---1---------------------------2--1------------------| 
A|-0-2-5-------5-3-2-0-2-0---------0-2-5------5-3-2-0-2-0------| 
E|3------------------------5-3-0-3------------------------5-3-0| 

Chorus 
G|-----------------------------| 
D|-----------------------------|  X4 
A|3-22--------5-3-0-----4------| 
E|-----5-3--3-------2-4---5-3-0| 

verse 3 
G|-----------------------------------------------------| 
D|-------2--1---------------------------2--1-----------| 
A|-0-2-5------5-3-2-0-2-0---------0-2-5------5-3-2--6-4| 
E|3-----------------------5-3-0-3------------------5---| 

G|------------------------------------------------------------| 
D|-------2--1---------------------------2--1------------------| 
A|-0-2-5------5-3-2---2-----------0-2-5------5-3-2-0-2-0------| 
E|3-----------------------5-3-0-3------------------------5-3-0| 

Outro 
G|-----------------------------| 
D|-----------------------------| 
A|3-22--------5-3-0-----4------| 
E|-----5-3--3-------2-4---5-3-0| 
	  

Search Paypal
auto scroll beats size up size down change color hide chords drawings
tab show chords e-chords YouTube Clip e-chords hide all tabs e-chords go to top tab