Bob Marley

home > Bob Marley

Burnin´ and Lootin Bass Tab

Bob Marley

Difficulty: BeginnerBeginner

by RastamanSoul

tuner correct add songbook print version text version save to e-mail
chordsukulelecavacokeyboardtabbassdrumsharmonicsflute Guitar Pro
chords

Burnin´ and Lootin

  		Bob Marley 
Burnin´ and Lootin´ 
 
Intro: 
 |-----------------------------------------------| 
 |---------------------7h9-----------------------| 
 |-7---9---------7------------7----9---------(7)-| 
 |---------7---------7------------------7--------| 
 
 
 Main Part:  
 |------------------------------------------------| 
 |----------------------5h7-----------------------| 
 |-------3-2--0---5-5-5--------------3--2--0------| 
 |-0--5------------------------0--5-----------(0)-| 
 
 |---------------------------------------------------| 
 |----------------------5h7----------------------5h7-| 
 |-------3-2--0---5-5-5--------------3--2--0---------| 
 |-0--5------------------------0--5------------------| 
 
 |----------------------------------| 
 |----------------------------------| 
 |-------5-5-5---------3-2--0-------| 
 |-(0)-----------0--5-----------(0)-| 
  
 |-------------------------------------------| 
 |-------------------------------2-3-2-------| 
 |-------3-2--0---5-5-5--5-(7)---------5-3-2-| 
 |-0--5--------------------------------------| 
 
 |----------------------------------------| 
 |----------------------------------------| 
 |----3-2--0---5-5-5----------3-2--0------| 
 |-5--------------------0--5----------(0)-| 
 
 |-------------------------------------------------| 
 |------------------------5h7----------------------| 
 |---------3-2--0---5-5-5-------(7)---7-8-7--5-3-2-| 
 |-0-3--5------------------------------------------| 
  
 |---------------------------------------| 
 |---------------------------------------| 
 |----3-2--0---5-5-5---------3-2--0------| 
 |-5-------------------0--5----------(0)-| 
 
 |----------------------------------------------------| 
 |------------------------------------5h7--7-7--------| 
 |---------3-2--0-----5-(7)---7--7-7------------5-5-5-| 
 |-0-3--5---------------------------------------------| 
 
 
 |--------------------------------------------------------| 
 |--------------------------------------------------------| 
 |-------3-2--(0)-----------3-2--0---5-5-5--5-(7)---7-8-7-| 
 |-0--5-------------0-3--5--------------------------------| 
  
  
 |---------------------------------------------| 
 |---------------------------------------------| 
 |-5-3-2-----3-2--0--5-5-5---------3-2--0------| 
 |--------5------------------0--5----------(0)-| 
 
 
 |--------------------------------------------------| 
 |----------------------------------------------5h7-| 
 |-------3-2--0---5-5-5--5-----3--0---3h5--3/5------| 
 |-0--5---------------------5-----------------------| 

	  

Search Paypal
auto scroll beats size up size down change color hide chords drawings
tab show chords e-chords YouTube Clip e-chords hide all tabs e-chords go to top tab