Bob Marley

home > Bob Marley

Ambush in the nigth Bass Tab

Bob Marley

Difficulty: AdvancedAdvanced

by ricardonds

tuner correct add songbook print version text version save to e-mail
chordsukulelecavacokeyboardtabbassdrumsharmonicsflute Guitar Pro
chords

Ambush in the nigth

  		G------------------------------------------------------- 
D-------7-----------------------------------------------  
A-5-7----5---0-0-0----7-7-----------22---------22-------       
E-----------------------9------9-9---3-----33--3----33-- 
 
G------------------------------------------------------- 
D------579--------------579----------------------------- 
A-77---------7----77----------7------------------------- 
E------------------------------------------------------- 
 
G------------------------------------------------------- 
D------------------------------------------------------- 
A------------------------------------------------------- 
E-55--0--55--0--55--0--555------------------------------ 
 
G------------------------------------------------------- 
D------------------------------------------------------- 
A-55--0--55--0--55--0--550------------------------------ 
E---------------------------33--0--33--0--33------------ 
 
G-------------------------------------------------------       
D------------------------------------------------------- 
A----579---------579---------55------------77----------- 
E-77-------7---77------7--33-----33---55------55-------- 
 
tah tudu ai, é só ouvi o som e treiná pra sabę  
q sai perfeita!!!!! 
Jah Love protect us!!! 

	  

Search Paypal
auto scroll beats size up size down change color hide chords drawings
tab show chords e-chords YouTube Clip e-chords hide all tabs e-chords go to top tab