Bob Lind

Dale Anne

Bob Lind

bass

by  ROBEPOIEL

save to print version add songbook text version e-mail correct tuner
chordsukulelecavacokeyboardtabbassdrumsharmonicaflute Guitar Pro
close

there isn't a video lesson for this song

chords

Dale Anne

	  		
Tuning: EADG 

G|----------------------------------------------------------------| 
D|2-----------2-------------------------------------------6-------| 
A|----------------2-------2-------4-----------4-------------------| 
E|------------------------------------------------4---------------| 

G|----------------------------------------------------------------| 
D|4-----------4-------------------2-----------2-------------------| 
A|----------------2-------2-----------------------2-------2-------| 
E|----------------------------------------------------------------| 

0:10 

G|----------------------------------------------------------------| 
D|2-----------2-----------------------------------6-------6-------| 
A|----------------2-------2-------4-----------4-------------------| 
E|----------------------------------------------------------------| 

G|----------------------------------------------------------------| 
D|4-----------4-----------------------------------2-------2-------| 
A|----------------4-------4---------------------------------------| 
E|--------------------------------5-----------5-------------------| 

G|----------------------------------------------------------------| 
D|4-----------4---4---------------4-----------4---4---------------| 
A|------------------------4-----------------------------------3---| 
E|----------------------------------------------------------------| 

G|----------------| 
D|4-------4-------| 
A|----------------| 
E|----------------| 

G|----------------------------------------------------------------| 
D|2-----------2-------------------2-----------2-----------2-------| 
A|----------------2-------2-----------------------2---------------| 
E|----------------------------------------------------------------| 

0:30 

G|----------------------------------------------------------------|. 
D|4-----------4-----------------------------------4---4-------4---|. 
A|----------------4---4-------4---2-----------2-------------------|. 
E|----------------------------------------------------------------|. 
                                                                   . x2 
G|----------------------------------------------------------------|. 
D|2-----------2-------------------2-----------2---------------2---|. 
A|----------------2---2-------2-------------------2---2-----------|. 
E|----------------------------------------------------------------|. 

0:48 

G|----------------------------------------------------------------| 
D|4-----------4---4-------6-------7-----------7---7-------6-------| x2 
A|----------------------------------------------------------------| 
E|----------------------------------------------------------------| 

G|----------------------------------------------------------------| 
D|4-----------4---4-------6-------4-----------4-----------4-------| 
A|------------------------------------------------3---------------| 
E|----------------------------------------------------------------| 

G|----------------------------------------------------------------| 
D|2-----------2-------------------2-----------2-------------------| 
A|----------------2-------2-----------------------2-------2-------| 
E|----------------------------------------------------------------| 

1:07 

G|----------------------------------------------------------------| 
D|2-----------2-----------------------------------6-------6-------| 
A|----------------2-------2-------4-----------4-------------------| 
E|----------------------------------------------------------------| 

G|----------------------------------------------------------------| 
D|4-----------4-----------------------------------2-------2-------| 
A|----------------4-------4---------------------------------------| 
E|--------------------------------5-----------5-------------------| 

G|----------------------------------------------------------------| 
D|4-----------4---4---------------4-----------4---4---------------| 
A|------------------------4-----------------------------------3---| 
E|----------------------------------------------------------------| 

G|----------------| 
D|4-------4-------| 
A|----------------| 
E|----------------| 

G|----------------------------------------------------------------| 
D|2-----------2-------------------2-----------2-----------2-------| 
A|----------------2-------2-----------------------2---------------| 
E|----------------------------------------------------------------| 

1:26 

G|----------------------------------------------------------------|. 
D|4-----------4-----------------------------------4---4-------4---|. 
A|----------------4---4-------4---2-----------2-------------------|. 
E|----------------------------------------------------------------|. 
                                                                   . x2 
G|----------------------------------------------------------------|. 
D|2-----------2-------------------2-----------2---------------2---|. 
A|----------------2---2-------2-------------------2---2-----------|. 
E|----------------------------------------------------------------|. 

1:44 

G|----------------------------------------------------------------| 
D|4-----------4---4-------6-------7-----------7---7-------6-------| x2 
A|----------------------------------------------------------------| 
E|----------------------------------------------------------------| 

G|----------------------------------------------------------------| 
D|4-----------4---4-------6-------4-----------4-----------4-------| 
A|------------------------------------------------3---------------| 
E|----------------------------------------------------------------| 

G|----------------------------------------------------------------| 
D|2-----------2-------------------2-----------2-------------------| 
A|----------------2-------2-----------------------2-------2-------| 
E|----------------------------------------------------------------| 

2:02 

G|----------------------------------------------------------------| 
D|2-----------2-----------------------------------6-------6-------| 
A|----------------2-------2-------4-----------4-------------------| 
E|----------------------------------------------------------------| 

G|----------------------------------------------------------------| 
D|4-----------4-----------------------------------2-------2-------| 
A|----------------4-------4---------------------------------------| 
E|--------------------------------5-----------5-------------------| 

G|----------------------------------------------------------------| 
D|4-----------4---4---------------4-----------4---4---------------| 
A|------------------------4-----------------------------------3---| 
E|----------------------------------------------------------------| 

G|----------------| 
D|4-------4-------| 
A|----------------| 
E|----------------| 

G|----------------------------------------------------------------| 
D|2-----------2-------------------2-----------2-----------2-------| 
A|----------------2-------2-----------------------2---------------| 
E|----------------------------------------------------------------| 

2:22 

G|----------------------------------------------------------------|. 
D|4-----------4-----------------------------------4---4-------4---|. 
A|----------------4---4-------4---2-----------2-------------------|. 
E|----------------------------------------------------------------|. 
                                                                   . x2 
G|----------------------------------------------------------------|. 
D|2-----------2-------------------2-----------2---------------2---|. 
A|----------------2---2-------2-------------------2---2-----------|. 
E|----------------------------------------------------------------|. 

2:40 

G|----------------------------------------------------------------| 
D|4-----------4---4-------6-------7-----------7---7-------6-------| x2 
A|----------------------------------------------------------------| 
E|----------------------------------------------------------------| 

G|----------------------------------------------------------------| 
D|4-----------4---4-------6-------4-----------4-----------4-------| 
A|------------------------------------------------3---------------| 
E|----------------------------------------------------------------| 

G|------------------------------------| 
D|2-----------2-------------------2---| 
A|----------------2-------2-----------| 
E|------------------------------------| 
		  

See also:

bass Porter Wagoner - A Satisfied Mind bass Waylon Jennings - You're Gonna Wonder About Me bass Waylon Jennings - I Think Its Time She Learned bass Linda Ronstadt - I Will Always Love You bass Steve Earle - I Dont Wanna Lose You Yet bass Glen Campbell - Love Me As Though There Were No Tomorrow
e-chords

Other versions:

bass Bob Lind - Dale Anne
auto scroll beats size up size down change color hide chords drawings
tab show chords e-chords YouTube Clip e-chords hide all tabs e-chords go to top tab

share