Blossoms

My Love Come Home

Blossoms

bass

by  ADALGOMES

save to print version add songbook text version e-mail correct tuner
chordsukulelecavacokeyboardtabbassdrumsharmonicaflute Guitar Pro
close

there isn't a video lesson for this song

chords

My Love Come Home

	  		
Tuning: EADG 

G|----------------------------------------------------------------| 
D|----------------------------8-------------------------------8---| 
A|6-------------------------------6-------------------------------| 
E|----------------------------------------------------------------| 

G|----------------------------------------------------------------| 
D|----------------------------8-----------------------------------| 
A|6-------------------------------6---------------------------6---| 
E|----------------------------------------------------------------| 

G|----------------------------------------------------------------| 
D|6-----------6---6---------------6-----------6---6---------------| 
A|----------------------------------------------------------------| 
E|----------------------------------------------------------------| 

G|----------------------------------------------------------------| 
D|6-----------6---6---------------6-----------6---6---------------| 
A|----------------------------------------------------------------| 
E|------------------------------------------------------------6---| 

0:21 

G|----------------------------------------------------------------|. 
D|--------------------------------5---------------5-----------5---|. 
A|6---------------6-----------6-----------------------------------|. 
E|----------------------------------------------------------------|. 
                                                                   . x2 
G|----------------------------------------------------------------|. 
D|6---------------6-----------6---8---------------8-----------8---|. 
A|----------------------------------------------------------------|. 
E|----------------------------------------------------------------|. 

0:41 

G|----------------------------------------------------------------| 
D|----------------------------------------------------------------| 
A|6-----6-6-------6-----6-6-------3-----3-3-------3-----3-3-------| 
E|----------------------------------------------------------------| 

G|----------------------------------------------------------------| 
D|3-----3-3-------3-----3-3---------------------------------------| 
A|--------------------------------1-----1-1-------1-----1-3---5---| 
E|----------------------------------------------------------------| 

G|----------------------------------------------------------------| 
D|----------------------------------------------------------------| 
A|6-----6-6-------6-----6-6-------3-----3-3-------3-----3-3-------| 
E|----------------------------------------------------------------| 

G|----------------------------------------------------------------| 
D|3-----3-3-------3-----3-3-------------------------------8---7---| 
A|--------------------------------1-----1-1---1---1---------------| 
E|----------------------------------------------------------------| 

G|----------------------------------------------------------------| 
D|6-----------6---6---------------6-----------6---6---------------| 
A|----------------------------------------------------------------| 
E|----------------------------------------------------------------| 

G|----------------------------------------------------------------| 
D|6-----------6---6---------------6-----------6---6---------------| 
A|----------------------------------------------------------------| 
E|------------------------------------------------------------6---| 

1:10 

G|----------------------------------------------------------------|. 
D|--------------------------------5---------------5-----------5---|. 
A|6---------------6-----------6-----------------------------------|. 
E|----------------------------------------------------------------|. 
                                                                   . x2 
G|----------------------------------------------------------------|. 
D|6---------------6-----------6---8---------------8-----------8---|. 
A|----------------------------------------------------------------|. 
E|----------------------------------------------------------------|. 

1:30 

G|----------------------------------------------------------------| 
D|----------------------------------------------------------------| 
A|6-----6-6-------6-----6-6-------3-----3-3-------3-----3-3-------| 
E|----------------------------------------------------------------| 

G|----------------------------------------------------------------| 
D|3-----3-3-------3-----3-3---------------------------------------| 
A|--------------------------------1-----1-1-------1-----1-3---5---| 
E|----------------------------------------------------------------| 

G|----------------------------------------------------------------| 
D|----------------------------------------------------------------| 
A|6-----6-6-------6-----6-6-------3-----3-3-------3-----3-3-------| 
E|----------------------------------------------------------------| 

G|----------------------------------------------------------------| 
D|3-----3-3-------3-----3-3-------------------------------8---7---| 
A|--------------------------------1-----1-1---1---1---------------| 
E|----------------------------------------------------------------| 

G|----------------------------------------------------------------| 
D|6-----------6---6---------------6-----------6---6---------------| 
A|----------------------------------------------------------------| 
E|----------------------------------------------------------------| 

G|----------------------------------------------------------------| 
D|6-----------6---6---------------6-----------6---6---------------| 
A|----------------------------------------------------------------| 
E|------------------------------------------------------------6---| 

1:59 

G|----------------------------------------------------------------|. 
D|--------------------------------5---------------5-----------5---|. 
A|6---------------6-----------6-----------------------------------|. 
E|----------------------------------------------------------------|. 
                                                                   . x2 
G|----------------------------------------------------------------|. 
D|6---------------6-----------6---8---------------8-----------8---|. 
A|----------------------------------------------------------------|. 
E|----------------------------------------------------------------|. 

2:19 Until fadeout. 

G|----------------------------------------------------------------| 
D|--------------------------------5-----5-5-------5-----5-5---5---| 
A|6-----6-6-------6-----6-6---6-----------------------------------| 
E|----------------------------------------------------------------| 

G|----------------------------------------------------------------| 
D|6-----6-6-------6-----6-6---6---8-----8-8-------8-----8-8---8---| 
A|----------------------------------------------------------------| 
E|----------------------------------------------------------------| 
		  

See also:

bass Deep Purple - Burn bass Deep Purple - Child in time bass Deep Purple - Smoke On The Water bass Deep Purple - Lady Double Dealer bass Deep Purple - Fire Ball bass Deep Purple - Smoke On The Water (ver. 3)
e-chords

Other versions:

bass Blossoms - My Love Come Home
auto scroll beats size up size down change color hide chords drawings
tab show chords e-chords YouTube Clip e-chords hide all tabs e-chords go to top tab

share