Blink 182

home > Blink 182

Man overboand Bass Tab

Blink 182

Difficulty: nolevelnolevel

by Tom+punk

tuner correct add songbook print version text version save to e-mail
chordsukulelecavacokeyboardtabbassdrumsharmonicsflute Guitar Pro
chords

Man overboand

Year: 2005 - Album: Blink 182 - Greatest Hits

  		Intro: 
Solo 
 
G---------------------------------------------|  
A---------------------------------------------| 
E------55--33--44-----------------------------|  
B--33-----------------------------------------| 
 
G---------------------------------------------|  
A---------------------------------------------| 
E------55--33--44-----------------------------| 2x 
B--33-----------------------------------------| 
 
G---------------------------------------------|  
A---------------------------------------------| 
E------55--33--44--5-3-5-3-5-3----------------|  
B--33-----------------------------------------| 
 
 
(So sorry ... I'ts over) 
 
G---------------------------------------------|  
A---------------------------------------------| 
E------------------------3-3-3-3-3-3-3-3------| 4x 
B--3-3-3-3----5-5-5-5-------------------------| 
 
(só os instrumentos) 
 
G---------------------------------------------|  
A---------------------------------------------| 
E-------------5-5-5-5---------------3-3-3-3---| 2x 
B--3-3-3-3---------------0-0-0-0--------------| 
 
G---------------------------------------------|  
A---------------------------------------------| 
E-------------5-5-5-5----7-7-7-7----3-3-3-3---| 2x 
B--3-3-3-3------------------------------------| 
 
(Let's take...) 
 
G---------------------------------------------|  
A---------------------------------------------| 
E-------------5-5-5-5---------------3-3-3-3---| 2x 
B--3-3-3-3---------------0-0-0-0--------------| 
 
(You can only lean...) 
 
G---------------------------------------------|  
A---------------------------------------------| 
E-------------5-5-5-5----7-7-7-7----3-3-3-3---| 2x 
B--3-3-3-3------------------------------------| 
 
(só os instrumentos) 
 
Depois toca igual tudo igual 
 
dae vem de novo (so sorry it's over) 
 
depois toka de novo (só os instrumentos) 
 
dae vem: 
 
(Man o a mission) 
 
G---------------------------------------------|  
A---------------------------------------------| 
E-------------5-5-5-5---------------3-3-3-3---| 4x 
B--3-3-3-3---------------0-0-0-0--------------| 
 
 

	  

Search Paypal
auto scroll beats size up size down change color hide chords drawings
tab show chords e-chords YouTube Clip e-chords hide all tabs e-chords go to top tab