Blink 182

home > Blink 182

I Miss You ao vivo Bass Tab

Blink 182

Difficulty: ExpertExpert

by tom+delonge182

tuner correct add songbook print version text version save to e-mail
chordsukulelecavacokeyboardtabbassdrumsharmonicsflute Guitar Pro
chords

I Miss You ao vivo

  		Vale a pena lembrar q o mark assim como tom usa uma braçadeira na segunda casa 
A música se repete várias vezes, mas eu separei parte por parte pra fikr mais fácil de 
se ler 
 
Intro: 
 
E|-0h77--0h66--0h44--0h66-|x2 
 
Verso: 
 
E|-0h77--0h66--0h44--0h66-|x3 
 
Ponte: 
 
A|------------------6-6-6-6--9-9-9-9--7777777777777777-| 
E|-7-7-7-7--9-9-9-9------------------------------------| 
 
A|------------------6-6-6-6--9-9-9-9--7777777777777777-0-| 
E|-7-7-7-7--9-9-9-9--------------------------------------| 
 
Verso 2: 
 
E|-0h77--0h66--0h44--0h66-|x4 
 
Refrão 1: 
 
A|------------------6-6-6-6--9-9-9-9--7777777777777777-| 
E|-7-7-7-7--9-9-9-9------------------------------------| 
 
A|------------------6-6-6-6--9-9-9-9--7777777777777777-0-| 
E|-7-7-7-7--9-9-9-9--------------------------------------| 
 
Ponte 2: 
 
A|------------------------9~----------------------------| 
E|-0h44--0h66--0h77--0h66----0h44--0h66--0h77--0h66--0~-| 
 
Refrão 2: 
 
A|------------------6-6-6-6--9-9-9-9--7777777777777777-| 
E|-7-7-7-7--9-9-9-9------------------------------------|x4 
 
Final: 
 
A|--------------------6666666666666666666666---------------------666666666666666-| 
E|-77777777--66666666-------------------------77777777--66666666-----------------| 
 
A|------------------6666666666666666--------------------6~~-| 
E|-7-7-7-7--9-9-9-9-------------------7-7-7-7--9-9-9-9------| 

	  

Search Paypal
auto scroll beats size up size down change color hide chords drawings
tab show chords e-chords YouTube Clip e-chords hide all tabs e-chords go to top tab