Blink 182

home > Blink 182

Eeverytime I Look For You Bass Tab

Blink 182

Difficulty: AdvancedAdvanced

by Cinho+Punk+182

tuner correct add songbook print version text version save to e-mail
chordsukulelecavacokeyboardtabbassdrumsharmonicsflute Guitar Pro
chords

Eeverytime I Look For You

Year: 2001 - Album: Take off Your Pants and Jacket

  		Verse (x4) 
e------------ 
a-2~---4~-7~- 
d------------ 
g------------ 
 
 
Bridge (x2) 
e------------ 
a-2~-9~-7~-4~ 
d------------ 
g------------ 
 
 
Chorus (x3) 
e-4~---0~---- 
a---------2~- 
d------------ 
g------------ 
 
 
End of Chorus (x1) 
e-4~---0~------------- 
a---------2~-6~------- 
d--------------------- 
g--------------------- 
 
Variation (x4) 
e-------------------- 
a-2~---9~---7~------- 
d-------------------- 
g-------------------- 
 
Order 
 
Verse 
Bridge 
Verse 
Chorus + End Chorus 
Bridge 
Verse 
Chorus + End Chorus 
(Gap for Guitar) 
Variation 
Chorus + End Chorus 
 
 
 
By: [email protected] 

	  

Search Paypal
auto scroll beats size up size down change color hide chords drawings
tab show chords e-chords YouTube Clip e-chords hide all tabs e-chords go to top tab