Blink 182

home > Blink 182

All the small trings Bass Tab

Blink 182

Difficulty: BeginnerBeginner

by changes10

tuner correct add songbook print version text version save to e-mail
chordsukulelecavacokeyboardtabbassdrumsharmonicsflute Guitar Pro
chords

All the small trings

  		intro: 
|-12-12/12------------9-9/9-----------| 
|-10-10/10--12-12/12--7-7/7--10-10/10-| 
|-----------10-10/10----------8--8/-8-| 
|-------------------------------------| 
 
Versos: 
|-12-12/12-------------------------------| 
|-10-10/10--12-12/12--10-10/10--12-12/12-| 
|-----------10-10/10---8--8/-8--10-10/10-| 
|----------------------------------------| 
 
Refrão: 
(na,na,na,na...) 
|-12-12/12------------9-9/9-----------| 
|-10-10/10--12-12/12--7-7/7--10-10/10-| 
|-----------10-10/10----------8--8/-8-| 
|-------------------------------------| 

	  

Search Paypal
auto scroll beats size up size down change color hide chords drawings
tab show chords e-chords YouTube Clip e-chords hide all tabs e-chords go to top tab